  0
SECTION
  2
HEADER
  9
$ACADVER
  1
AC1015
  9
$ACADMAINTVER
 70
    20
  9
$DWGCODEPAGE
  3
ANSI_932
  9
$INSBASE
 10
0.0
 20
0.0
 30
0.0
  9
$EXTMIN
 10
282.6949649999999
 20
-79.585351
 30
0.0
  9
$EXTMAX
 10
1028.897384208479
 20
252.188965501903
 30
0.0
  9
$LIMMIN
 10
282.693977
 20
-79.58635
  9
$LIMMAX
 10
687.7218249999998
 20
200.24627
  9
$ORTHOMODE
 70
     1
  9
$REGENMODE
 70
     1
  9
$FILLMODE
 70
     1
  9
$QTEXTMODE
 70
     0
  9
$MIRRTEXT
 70
     0
  9
$LTSCALE
 40
6.750430999999998
  9
$ATTMODE
 70
     1
  9
$TEXTSIZE
 40
3.2
  9
$TRACEWID
 40
0.05
  9
$TEXTSTYLE
  7
高3.2
  9
$CLAYER
  8
0
  9
$CELTYPE
  6
CONTINUOUS
  9
$CECOLOR
 62
   256
  9
$CELTSCALE
 40
1.0
  9
$DISPSILH
 70
     0
  9
$DIMSCALE
 40
1.0
  9
$DIMASZ
 40
2.5
  9
$DIMEXO
 40
0.25
  9
$DIMDLI
 40
0.2
  9
$DIMRND
 40
0.0
  9
$DIMDLE
 40
0.0
  9
$DIMEXE
 40
1.25
  9
$DIMTP
 40
0.0
  9
$DIMTM
 40
0.0
  9
$DIMTXT
 40
3.0
  9
$DIMCEN
 40
0.0
  9
$DIMTSZ
 40
0.0
  9
$DIMTOL
 70
     0
  9
$DIMLIM
 70
     0
  9
$DIMTIH
 70
     0
  9
$DIMTOH
 70
     0
  9
$DIMSE1
 70
     0
  9
$DIMSE2
 70
     0
  9
$DIMTAD
 70
     3
  9
$DIMZIN
 70
     8
  9
$DIMBLK
  1
Open30
  9
$DIMASO
 70
     1
  9
$DIMSHO
 70
     1
  9
$DIMPOST
  1

  9
$DIMAPOST
  1

  9
$DIMALT
 70
     0
  9
$DIMALTD
 70
     3
  9
$DIMALTF
 40
0.03937007874016
  9
$DIMLFAC
 40
1.0
  9
$DIMTOFL
 70
     1
  9
$DIMTVP
 40
0.0
  9
$DIMTIX
 70
     0
  9
$DIMSOXD
 70
     0
  9
$DIMSAH
 70
     0
  9
$DIMBLK1
  1

  9
$DIMBLK2
  1

  9
$DIMSTYLE
  2
FREE
  9
$DIMCLRD
 70
     0
  9
$DIMCLRE
 70
     0
  9
$DIMCLRT
 70
     4
  9
$DIMTFAC
 40
1.0
  9
$DIMGAP
 40
0.625
  9
$DIMJUST
 70
     0
  9
$DIMSD1
 70
     0
  9
$DIMSD2
 70
     0
  9
$DIMTOLJ
 70
     0
  9
$DIMTZIN
 70
     8
  9
$DIMALTZ
 70
     0
  9
$DIMALTTZ
 70
     0
  9
$DIMUPT
 70
     1
  9
$DIMDEC
 70
     2
  9
$DIMTDEC
 70
     2
  9
$DIMALTU
 70
     2
  9
$DIMALTTD
 70
     3
  9
$DIMTXSTY
  7
STANDARD
  9
$DIMAUNIT
 70
     0
  9
$DIMADEC
 70
     1
  9
$DIMALTRND
 40
0.0
  9
$DIMAZIN
 70
     2
  9
$DIMDSEP
 70
    46
  9
$DIMATFIT
 70
     0
  9
$DIMFRAC
 70
     0
  9
$DIMLDRBLK
  1
Open30
  9
$DIMLUNIT
 70
     2
  9
$DIMLWD
 70
    -2
  9
$DIMLWE
 70
    -2
  9
$DIMTMOVE
 70
     0
  9
$LUNITS
 70
     2
  9
$LUPREC
 70
     4
  9
$SKETCHINC
 40
0.1
  9
$FILLETRAD
 40
0.0
  9
$AUNITS
 70
     0
  9
$AUPREC
 70
     0
  9
$MENU
  1
.
  9
$ELEVATION
 40
0.0
  9
$PELEVATION
 40
0.0
  9
$THICKNESS
 40
0.0
  9
$LIMCHECK
 70
     0
  9
$CHAMFERA
 40
0.0
  9
$CHAMFERB
 40
0.0
  9
$CHAMFERC
 40
0.0
  9
$CHAMFERD
 40
0.0
  9
$SKPOLY
 70
     0
  9
$TDCREATE
 40
2456338.594394722
  9
$TDUCREATE
 40
2456338.219394722
  9
$TDUPDATE
 40
2456855.579265336
  9
$TDUUPDATE
 40
2456855.204265336
  9
$TDINDWG
 40
0.0156055093
  9
$TDUSRTIMER
 40
0.0156055093
  9
$USRTIMER
 70
     1
  9
$ANGBASE
 50
0.0
  9
$ANGDIR
 70
     0
  9
$PDMODE
 70
     0
  9
$PDSIZE
 40
0.0
  9
$PLINEWID
 40
0.0
  9
$SPLFRAME
 70
     0
  9
$SPLINETYPE
 70
     6
  9
$SPLINESEGS
 70
     8
  9
$HANDSEED
  5
887
  9
$SURFTAB1
 70
     6
  9
$SURFTAB2
 70
     6
  9
$SURFTYPE
 70
     6
  9
$SURFU
 70
     6
  9
$SURFV
 70
     6
  9
$UCSBASE
  2

  9
$UCSNAME
  2

  9
$UCSORG
 10
0.0
 20
0.0
 30
0.0
  9
$UCSXDIR
 10
1.0
 20
0.0
 30
0.0
  9
$UCSYDIR
 10
0.0
 20
1.0
 30
0.0
  9
$UCSORTHOREF
  2

  9
$UCSORTHOVIEW
 70
     0
  9
$UCSORGTOP
 10
0.0
 20
0.0
 30
0.0
  9
$UCSORGBOTTOM
 10
0.0
 20
0.0
 30
0.0
  9
$UCSORGLEFT
 10
0.0
 20
0.0
 30
0.0
  9
$UCSORGRIGHT
 10
0.0
 20
0.0
 30
0.0
  9
$UCSORGFRONT
 10
0.0
 20
0.0
 30
0.0
  9
$UCSORGBACK
 10
0.0
 20
0.0
 30
0.0
  9
$PUCSBASE
  2

  9
$PUCSNAME
  2

  9
$PUCSORG
 10
0.0
 20
0.0
 30
0.0
  9
$PUCSXDIR
 10
1.0
 20
0.0
 30
0.0
  9
$PUCSYDIR
 10
0.0
 20
1.0
 30
0.0
  9
$PUCSORTHOREF
  2

  9
$PUCSORTHOVIEW
 70
     0
  9
$PUCSORGTOP
 10
0.0
 20
0.0
 30
0.0
  9
$PUCSORGBOTTOM
 10
0.0
 20
0.0
 30
0.0
  9
$PUCSORGLEFT
 10
0.0
 20
0.0
 30
0.0
  9
$PUCSORGRIGHT
 10
0.0
 20
0.0
 30
0.0
  9
$PUCSORGFRONT
 10
0.0
 20
0.0
 30
0.0
  9
$PUCSORGBACK
 10
0.0
 20
0.0
 30
0.0
  9
$USERI1
 70
     0
  9
$USERI2
 70
     0
  9
$USERI3
 70
     0
  9
$USERI4
 70
     0
  9
$USERI5
 70
     0
  9
$USERR1
 40
0.0
  9
$USERR2
 40
0.0
  9
$USERR3
 40
0.0
  9
$USERR4
 40
0.0
  9
$USERR5
 40
0.0
  9
$WORLDVIEW
 70
     1
  9
$SHADEDGE
 70
     3
  9
$SHADEDIF
 70
    70
  9
$TILEMODE
 70
     1
  9
$MAXACTVP
 70
    64
  9
$PINSBASE
 10
0.0
 20
0.0
 30
0.0
  9
$PLIMCHECK
 70
     0
  9
$PEXTMIN
 10
1.000000000000000E+20
 20
1.000000000000000E+20
 30
1.000000000000000E+20
  9
$PEXTMAX
 10
-1.000000000000000E+20
 20
-1.000000000000000E+20
 30
-1.000000000000000E+20
  9
$PLIMMIN
 10
0.0
 20
0.0
  9
$PLIMMAX
 10
12.0
 20
9.0
  9
$UNITMODE
 70
     0
  9
$VISRETAIN
 70
     1
  9
$PLINEGEN
 70
     0
  9
$PSLTSCALE
 70
     1
  9
$TREEDEPTH
 70
  3020
  9
$CMLSTYLE
  2
Standard
  9
$CMLJUST
 70
     0
  9
$CMLSCALE
 40
1.0
  9
$PROXYGRAPHICS
 70
     1
  9
$MEASUREMENT
 70
     0
  9
$CELWEIGHT
370
    -1
  9
$ENDCAPS
280
     0
  9
$JOINSTYLE
280
     0
  9
$LWDISPLAY
290
     0
  9
$INSUNITS
 70
     0
  9
$HYPERLINKBASE
  1

  9
$STYLESHEET
  1

  9
$XEDIT
290
     1
  9
$CEPSNTYPE
380
     0
  9
$PSTYLEMODE
290
     1
  9
$FINGERPRINTGUID
  2
{B9AF97C0-AE6B-49C4-8180-6675DFCAF4FF}
  9
$VERSIONGUID
  2
{2F9341D3-DD1B-4F83-9802-7B12969BEC70}
  9
$EXTNAMES
290
     1
  9
$PSVPSCALE
 40
0.0
  9
$OLESTARTUP
290
     0
  0
ENDSEC
  0
SECTION
  2
CLASSES
  0
CLASS
  1
ACDBDICTIONARYWDFLT
  2
AcDbDictionaryWithDefault
  3
ObjectDBX Classes
 90
        0
280
     0
281
     0
  0
CLASS
  1
MATERIAL
  2
AcDbMaterial
  3
ObjectDBX Classes
 90
     1153
280
     0
281
     0
  0
CLASS
  1
VISUALSTYLE
  2
AcDbVisualStyle
  3
ObjectDBX Classes
 90
     4095
280
     0
281
     0
  0
CLASS
  1
SCALE
  2
AcDbScale
  3
ObjectDBX Classes
 90
     1153
280
     0
281
     0
  0
CLASS
  1
TABLESTYLE
  2
AcDbTableStyle
  3
ObjectDBX Classes
 90
     4095
280
     0
281
     0
  0
CLASS
  1
MLEADERSTYLE
  2
AcDbMLeaderStyle
  3
ACDB_MLEADERSTYLE_CLASS
 90
     4095
280
     0
281
     0
  0
CLASS
  1
SORTENTSTABLE
  2
AcDbSortentsTable
  3
ObjectDBX Classes
 90
        0
280
     0
281
     0
  0
CLASS
  1
ACDB_TEXTOBJECTCONTEXTDATA_CLASS
  2
AcDbTextObjectContextData
  3
ObjectDBX Classes
 90
    33921
280
     0
281
     0
  0
CLASS
  1
DICTIONARYVAR
  2
AcDbDictionaryVar
  3
ObjectDBX Classes
 90
        0
280
     0
281
     0
  0
CLASS
  1
CELLSTYLEMAP
  2
AcDbCellStyleMap
  3
ObjectDBX Classes
 90
     1152
280
     0
281
     0
  0
CLASS
  1
ACDBPLACEHOLDER
  2
AcDbPlaceHolder
  3
ObjectDBX Classes
 90
        0
280
     0
281
     0
  0
CLASS
  1
LAYOUT
  2
AcDbLayout
  3
ObjectDBX Classes
 90
        0
280
     0
281
     0
  0
ENDSEC
  0
SECTION
  2
TABLES
  0
TABLE
  2
VPORT
  5
8
330
0
100
AcDbSymbolTable
 70
     1
  0
VPORT
  5
8B
330
8
100
AcDbSymbolTableRecord
100
AcDbViewportTableRecord
  2
*Active
 70
     0
 10
0.0
 20
0.0
 11
1.0
 21
1.0
 12
588.275329189605
 22
16.72787588271353
 13
0.0
 23
0.0
 14
1.0
 24
1.0
 15
0.0
 25
0.0
 16
0.0
 26
0.0
 36
1.0
 17
0.0
 27
0.0
 37
0.0
 40
507.345246654721
 41
2.173835125448028
 42
50.0
 43
0.0
 44
0.0
 50
0.0
 51
0.0
 71
     0
 72
   100
 73
     1
 74
     1
 75
     0
 76
     0
 77
     0
 78
     0
281
     0
 65
     1
110
0.0
120
0.0
130
0.0
111
1.0
121
0.0
131
0.0
112
0.0
122
1.0
132
0.0
 79
     0
146
0.0
  0
ENDTAB
  0
TABLE
  2
LTYPE
  5
5
330
0
100
AcDbSymbolTable
 70
     2
  0
LTYPE
  5
5A
330
5
100
AcDbSymbolTableRecord
100
AcDbLinetypeTableRecord
  2
ByBlock
 70
     0
  3

 72
    65
 73
     0
 40
0.0
  0
LTYPE
  5
5B
330
5
100
AcDbSymbolTableRecord
100
AcDbLinetypeTableRecord
  2
ByLayer
 70
     0
  3

 72
    65
 73
     0
 40
0.0
  0
LTYPE
  5
5C
330
5
100
AcDbSymbolTableRecord
100
AcDbLinetypeTableRecord
  2
CONTINUOUS
 70
     0
  3
Solid-line
 72
    65
 73
     0
 40
0.0
  0
ENDTAB
  0
TABLE
  2
LAYER
  5
2
102
{ACAD_XDICTIONARY
360
380
102
}
330
0
100
AcDbSymbolTable
 70
     2
  0
LAYER
  5
54
102
{ACAD_XDICTIONARY
360
538
102
}
330
2
100
AcDbSymbolTableRecord
100
AcDbLayerTableRecord
  2
0
 70
     0
 62
     7
  6
CONTINUOUS
370
    -3
390
F
  0
LAYER
  5
369
330
2
100
AcDbSymbolTableRecord
100
AcDbLayerTableRecord
  2
Defpoints
 70
     0
 62
     7
  6
CONTINUOUS
290
     0
370
    -3
390
F
  0
ENDTAB
  0
TABLE
  2
STYLE
  5
3
330
0
100
AcDbSymbolTable
 70
     6
  0
STYLE
  5
55
330
3
100
AcDbSymbolTableRecord
100
AcDbTextStyleTableRecord
  2
STANDARD
 70
     0
 40
0.0
 41
1.0
 50
0.0
 71
     0
 42
0.2
  3
TXT
  4
BIGFONT
  0
STYLE
  5
36A
330
3
100
AcDbSymbolTableRecord
100
AcDbTextStyleTableRecord
  2
高3.2
 70
     0
 40
3.2
 41
1.0
 50
0.0
 71
     0
 42
3.2
  3
txt.shx
  4
bigfont.shx
  0
STYLE
  5
36B
330
3
100
AcDbSymbolTableRecord
100
AcDbTextStyleTableRecord
  2
高6.3
 70
     0
 40
6.299999999999998
 41
1.0
 50
0.0
 71
     0
 42
6.299999999999998
  3
txt.shx
  4
bigfont.shx
  0
STYLE
  5
36D
330
3
100
AcDbSymbolTableRecord
100
AcDbTextStyleTableRecord
  2
高4.5
 70
     0
 40
4.5
 41
1.0
 50
0.0
 71
     0
 42
6.299999999999998
  3
txt.shx
  4
bigfont.shx
  0
STYLE
  5
36E
330
3
100
AcDbSymbolTableRecord
100
AcDbTextStyleTableRecord
  2
高2
 70
     0
 40
2.0
 41
1.0
 50
0.0
 71
     0
 42
2.0
  3
txt.shx
  4
bigfont.shx
  0
STYLE
  5
62E
330
3
100
AcDbSymbolTableRecord
100
AcDbTextStyleTableRecord
  2
高2.5
 70
     0
 40
2.5
 41
1.0
 50
0.0
 71
     0
 42
0.2
  3
txt.shx
  4
bigfont.shx
  0
ENDTAB
  0
TABLE
  2
VIEW
  5
6
330
0
100
AcDbSymbolTable
 70
     0
  0
ENDTAB
  0
TABLE
  2
UCS
  5
7
330
0
100
AcDbSymbolTable
 70
     0
  0
ENDTAB
  0
TABLE
  2
APPID
  5
9
330
0
100
AcDbSymbolTable
 70
    10
  0
APPID
  5
56
330
9
100
AcDbSymbolTableRecord
100
AcDbRegAppTableRecord
  2
ACAD
 70
     0
  0
APPID
  5
5D
330
9
100
AcDbSymbolTableRecord
100
AcDbRegAppTableRecord
  2
AcadAnnotative
 70
     0
  0
APPID
  5
379
330
9
100
AcDbSymbolTableRecord
100
AcDbRegAppTableRecord
  2
ACAD_DSTYLE_DIMJOGGED_JOGANGLE_SYMBOL
 70
     0
  0
APPID
  5
37A
330
9
100
AcDbSymbolTableRecord
100
AcDbRegAppTableRecord
  2
ACAD_DSTYLE_DIMJAG
 70
     0
  0
APPID
  5
37B
330
9
100
AcDbSymbolTableRecord
100
AcDbRegAppTableRecord
  2
ACAD_DSTYLE_DIMBREAK
 70
     0
  0
APPID
  5
37C
330
9
100
AcDbSymbolTableRecord
100
AcDbRegAppTableRecord
  2
ACAD_DSTYLE_DIMTALN
 70
     0
  0
APPID
  5
50D
330
9
100
AcDbSymbolTableRecord
100
AcDbRegAppTableRecord
  2
ACAD_EXEMPT_FROM_CAD_STANDARDS
 70
     0
  0
APPID
  5
57A
330
9
100
AcDbSymbolTableRecord
100
AcDbRegAppTableRecord
  2
ACAD_MLEADERVER
 70
     0
  0
APPID
  5
57F
330
9
100
AcDbSymbolTableRecord
100
AcDbRegAppTableRecord
  2
ACAD_DSTYLE_DIMARC_LENGTH_SYMBOL
 70
     0
  0
APPID
  5
580
330
9
100
AcDbSymbolTableRecord
100
AcDbRegAppTableRecord
  2
ACAD_DSTYLE_DIMEXT_LENGTH
 70
     0
  0
ENDTAB
  0
TABLE
  2
DIMSTYLE
  5
A
330
0
100
AcDbSymbolTable
 70
    11
100
AcDbDimStyleTable
 71
     2
340
57
340
36F
  0
DIMSTYLE
105
57
330
A
100
AcDbSymbolTableRecord
100
AcDbDimStyleTableRecord
  2
Standard
 70
     0
340
55
  0
DIMSTYLE
105
36F
330
A
100
AcDbSymbolTableRecord
100
AcDbDimStyleTableRecord
  2
1：1
 70
     0
 41
2.5
 42
0.25
 43
0.2
 44
1.25
 73
     0
 74
     0
 77
     3
 78
     8
 79
     2
140
3.0
141
0.0
143
0.03937007874016
147
0.625
171
     3
172
     1
178
     4
179
     1
271
     2
272
     2
274
     3
283
     0
284
     8
288
     1
289
     0
340
55
341
2D9
342
2D9
1001
ACAD_DSTYLE_DIMARC_LENGTH_SYMBOL
1070
   379
1070
     2
1001
ACAD_DSTYLE_DIMEXT_LENGTH
1070
   378
1040
1.25
1001
ACAD_DSTYLE_DIMJOGGED_JOGANGLE_SYMBOL
1070
   384
1040
1.570796326794896
  0
DIMSTYLE
105
62F
102
{ACAD_REACTORS
330
640
102
}
330
A
100
AcDbSymbolTableRecord
100
AcDbDimStyleTableRecord
  2
2：1
 70
     0
 41
2.5
 42
0.25
 43
0.2
 44
1.25
 73
     0
 74
     0
 77
     3
 78
     8
 79
     2
140
3.0
141
0.0
143
0.03937007874016
144
0.5
147
0.625
171
     3
172
     1
178
     4
179
     1
271
     2
272
     2
274
     3
283
     0
284
     8
288
     1
289
     0
340
55
341
2D9
342
2D9
1001
ACAD_DSTYLE_DIMARC_LENGTH_SYMBOL
1070
   379
1070
     2
1001
ACAD_DSTYLE_DIMEXT_LENGTH
1070
   378
1040
1.25
1001
ACAD_DSTYLE_DIMJOGGED_JOGANGLE_SYMBOL
1070
   384
1040
1.570796326794896
  0
DIMSTYLE
105
630
102
{ACAD_REACTORS
330
641
102
}
330
A
100
AcDbSymbolTableRecord
100
AcDbDimStyleTableRecord
  2
5：1
 70
     0
 41
2.5
 42
0.25
 43
0.2
 44
1.25
 73
     0
 74
     0
 77
     3
 78
     8
 79
     2
140
3.0
141
0.0
143
0.03937007874016
144
0.2
147
0.625
171
     3
172
     1
178
     4
179
     1
271
     2
272
     2
274
     3
283
     0
284
     8
288
     1
289
     0
340
55
341
2D9
342
2D9
1001
ACAD_DSTYLE_DIMARC_LENGTH_SYMBOL
1070
   379
1070
     2
1001
ACAD_DSTYLE_DIMEXT_LENGTH
1070
   378
1040
1.25
1001
ACAD_DSTYLE_DIMJOGGED_JOGANGLE_SYMBOL
1070
   384
1040
1.570796326794896
  0
DIMSTYLE
105
631
102
{ACAD_REACTORS
330
63F
102
}
330
A
100
AcDbSymbolTableRecord
100
AcDbDimStyleTableRecord
  2
10：1
 70
     0
 41
2.5
 42
0.25
 43
0.2
 44
1.25
 73
     0
 74
     0
 77
     3
 78
     8
 79
     2
140
3.0
141
0.0
143
0.03937007874016
144
0.1
147
0.625
171
     3
172
     1
178
     4
179
     1
271
     2
272
     2
274
     3
283
     0
284
     8
288
     1
289
     0
340
55
341
2D9
342
2D9
1001
ACAD_DSTYLE_DIMARC_LENGTH_SYMBOL
1070
   379
1070
     2
1001
ACAD_DSTYLE_DIMEXT_LENGTH
1070
   378
1040
1.25
1001
ACAD_DSTYLE_DIMJOGGED_JOGANGLE_SYMBOL
1070
   384
1040
1.570796326794896
  0
DIMSTYLE
105
632
102
{ACAD_REACTORS
330
63D
102
}
330
A
100
AcDbSymbolTableRecord
100
AcDbDimStyleTableRecord
  2
1／2
 70
     0
 41
2.5
 42
0.25
 43
0.2
 44
1.25
 73
     0
 74
     0
 77
     3
 78
     8
 79
     2
140
3.0
141
0.0
143
0.03937007874016
144
2.0
147
0.625
171
     3
172
     1
178
     4
179
     1
271
     2
272
     2
274
     3
283
     0
284
     8
288
     1
289
     0
340
55
341
2D9
342
2D9
1001
ACAD_DSTYLE_DIMARC_LENGTH_SYMBOL
1070
   379
1070
     2
1001
ACAD_DSTYLE_DIMEXT_LENGTH
1070
   378
1040
1.25
1001
ACAD_DSTYLE_DIMJOGGED_JOGANGLE_SYMBOL
1070
   384
1040
1.570796326794896
  0
DIMSTYLE
105
633
102
{ACAD_REACTORS
330
63C
102
}
330
A
100
AcDbSymbolTableRecord
100
AcDbDimStyleTableRecord
  2
1／5
 70
     0
 41
2.5
 42
0.25
 43
0.2
 44
1.25
 73
     0
 74
     0
 77
     3
 78
     8
 79
     2
140
3.0
141
0.0
143
0.03937007874016
144
5.0
147
0.625
171
     3
172
     1
178
     4
179
     1
271
     2
272
     2
274
     3
283
     0
284
     8
288
     1
289
     0
340
55
341
2D9
342
2D9
1001
ACAD_DSTYLE_DIMARC_LENGTH_SYMBOL
1070
   379
1070
     2
1001
ACAD_DSTYLE_DIMEXT_LENGTH
1070
   378
1040
1.25
1001
ACAD_DSTYLE_DIMJOGGED_JOGANGLE_SYMBOL
1070
   384
1040
1.570796326794896
  0
DIMSTYLE
105
634
102
{ACAD_REACTORS
330
63E
102
}
330
A
100
AcDbSymbolTableRecord
100
AcDbDimStyleTableRecord
  2
1／10
 70
     0
 41
2.5
 42
0.25
 43
0.2
 44
1.25
 73
     0
 74
     0
 77
     3
 78
     8
 79
     2
140
3.0
141
0.0
143
0.03937007874016
144
10.0
147
0.625
171
     3
172
     1
178
     4
179
     1
271
     2
272
     2
274
     3
283
     0
284
     8
288
     1
289
     0
340
55
341
2D9
342
2D9
1001
ACAD_DSTYLE_DIMARC_LENGTH_SYMBOL
1070
   379
1070
     2
1001
ACAD_DSTYLE_DIMEXT_LENGTH
1070
   378
1040
1.25
1001
ACAD_DSTYLE_DIMJOGGED_JOGANGLE_SYMBOL
1070
   384
1040
1.570796326794896
  0
DIMSTYLE
105
635
102
{ACAD_REACTORS
330
642
102
}
330
A
100
AcDbSymbolTableRecord
100
AcDbDimStyleTableRecord
  2
1／4
 70
     0
 41
2.5
 42
0.25
 43
0.2
 44
1.25
 73
     0
 74
     0
 77
     3
 78
     8
 79
     2
140
3.0
141
0.0
143
0.03937007874016
144
4.0
147
0.625
171
     3
172
     1
178
     4
179
     1
271
     2
272
     2
274
     3
283
     0
284
     8
288
     1
289
     0
340
55
341
2D9
342
2D9
1001
ACAD_DSTYLE_DIMARC_LENGTH_SYMBOL
1070
   379
1070
     2
1001
ACAD_DSTYLE_DIMEXT_LENGTH
1070
   378
1040
1.25
1001
ACAD_DSTYLE_DIMJOGGED_JOGANGLE_SYMBOL
1070
   384
1040
1.570796326794896
  0
DIMSTYLE
105
636
102
{ACAD_REACTORS
330
643
102
}
330
A
100
AcDbSymbolTableRecord
100
AcDbDimStyleTableRecord
  2
1／3
 70
     0
 41
2.5
 42
0.25
 43
0.2
 44
1.25
 73
     0
 74
     0
 77
     3
 78
     8
 79
     2
140
3.0
141
0.0
143
0.03937007874016
144
3.0
147
0.625
171
     3
172
     1
178
     4
179
     1
271
     2
272
     2
274
     3
283
     0
284
     8
288
     1
289
     0
340
55
341
2D9
342
2D9
1001
ACAD_DSTYLE_DIMARC_LENGTH_SYMBOL
1070
   379
1070
     2
1001
ACAD_DSTYLE_DIMEXT_LENGTH
1070
   378
1040
1.25
1001
ACAD_DSTYLE_DIMJOGGED_JOGANGLE_SYMBOL
1070
   384
1040
1.570796326794896
  0
DIMSTYLE
105
637
102
{ACAD_REACTORS
330
644
102
}
330
A
100
AcDbSymbolTableRecord
100
AcDbDimStyleTableRecord
  2
FREE
 70
     0
 41
2.5
 42
0.25
 43
0.2
 44
1.25
 73
     0
 74
     0
 77
     3
 78
     8
 79
     2
140
3.0
141
0.0
143
0.03937007874016
147
0.625
171
     3
172
     1
178
     4
179
     1
271
     2
272
     2
274
     3
283
     0
284
     8
288
     1
289
     0
340
55
341
2D9
342
2D9
1001
ACAD_DSTYLE_DIMBREAK
1070
   391
1040
3.75
1001
ACAD_DSTYLE_DIMJAG
1070
   388
1040
1.5
1001
ACAD_DSTYLE_DIMTALN
1070
   392
1070
     0
1001
ACAD_DSTYLE_DIMARC_LENGTH_SYMBOL
1070
   379
1070
     2
1001
ACAD_DSTYLE_DIMEXT_LENGTH
1070
   378
1040
1.25
1001
ACAD_DSTYLE_DIMJOGGED_JOGANGLE_SYMBOL
1070
   384
1040
1.570796326794896
  0
ENDTAB
  0
TABLE
  2
BLOCK_RECORD
  5
1
330
0
100
AcDbSymbolTable
 70
    25
  0
BLOCK_RECORD
  5
6B
102
{ACAD_XDICTIONARY
360
7BB
102
}
330
1
100
AcDbSymbolTableRecord
100
AcDbBlockTableRecord
  2
*Model_Space
340
6E
  0
BLOCK_RECORD
  5
67
330
1
100
AcDbSymbolTableRecord
100
AcDbBlockTableRecord
  2
*Paper_Space
340
6A
  0
BLOCK_RECORD
  5
2D9
330
1
100
AcDbSymbolTableRecord
100
AcDbBlockTableRecord
  2
_Open30
340
0
102
{BLKREFS
331
58A
331
58B
331
593
331
594
331
59C
331
59D
331
5AB
331
5AC
331
5B9
331
5BA
331
5C7
331
5C8
331
5D5
331
5D6
331
5E3
331
5E4
331
5F1
331
5F2
331
5FF
331
600
331
60D
331
60E
331
61B
331
61C
331
627
331
628
331
711
331
712
331
71C
331
71D
331
727
331
728
331
732
331
733
331
73D
331
73E
331
748
331
749
331
753
331
754
331
75E
331
75F
331
769
331
76A
331
772
331
773
102
}
  0
BLOCK_RECORD
  5
4E9
330
1
100
AcDbSymbolTableRecord
100
AcDbBlockTableRecord
  2
*D1
340
0
  0
BLOCK_RECORD
  5
4F5
330
1
100
AcDbSymbolTableRecord
100
AcDbBlockTableRecord
  2
*D2
340
0
  0
BLOCK_RECORD
  5
501
330
1
100
AcDbSymbolTableRecord
100
AcDbBlockTableRecord
  2
*D3
340
0
  0
BLOCK_RECORD
  5
5A4
330
1
100
AcDbSymbolTableRecord
100
AcDbBlockTableRecord
  2
*D4
340
0
  0
BLOCK_RECORD
  5
5B2
330
1
100
AcDbSymbolTableRecord
100
AcDbBlockTableRecord
  2
*D5
340
0
  0
BLOCK_RECORD
  5
5C0
330
1
100
AcDbSymbolTableRecord
100
AcDbBlockTableRecord
  2
*D6
340
0
  0
BLOCK_RECORD
  5
5CE
330
1
100
AcDbSymbolTableRecord
100
AcDbBlockTableRecord
  2
*D7
340
0
  0
BLOCK_RECORD
  5
5DC
330
1
100
AcDbSymbolTableRecord
100
AcDbBlockTableRecord
  2
*D8
340
0
  0
BLOCK_RECORD
  5
5EA
330
1
100
AcDbSymbolTableRecord
100
AcDbBlockTableRecord
  2
*D9
340
0
  0
BLOCK_RECORD
  5
5F8
330
1
100
AcDbSymbolTableRecord
100
AcDbBlockTableRecord
  2
*D10
340
0
  0
BLOCK_RECORD
  5
606
330
1
100
AcDbSymbolTableRecord
100
AcDbBlockTableRecord
  2
*D11
340
0
  0
BLOCK_RECORD
  5
614
330
1
100
AcDbSymbolTableRecord
100
AcDbBlockTableRecord
  2
*D12
340
0
  0
BLOCK_RECORD
  5
622
330
1
100
AcDbSymbolTableRecord
100
AcDbBlockTableRecord
  2
*D13
340
0
  0
BLOCK_RECORD
  5
682
330
1
100
AcDbSymbolTableRecord
100
AcDbBlockTableRecord
  2
*D15
340
0
  0
BLOCK_RECORD
  5
690
330
1
100
AcDbSymbolTableRecord
100
AcDbBlockTableRecord
  2
*D16
340
0
  0
BLOCK_RECORD
  5
69E
330
1
100
AcDbSymbolTableRecord
100
AcDbBlockTableRecord
  2
*D17
340
0
  0
BLOCK_RECORD
  5
6AC
330
1
100
AcDbSymbolTableRecord
100
AcDbBlockTableRecord
  2
*D18
340
0
  0
BLOCK_RECORD
  5
6BA
330
1
100
AcDbSymbolTableRecord
100
AcDbBlockTableRecord
  2
*D19
340
0
  0
BLOCK_RECORD
  5
6C8
330
1
100
AcDbSymbolTableRecord
100
AcDbBlockTableRecord
  2
*D20
340
0
  0
BLOCK_RECORD
  5
6D6
330
1
100
AcDbSymbolTableRecord
100
AcDbBlockTableRecord
  2
*D21
340
0
  0
BLOCK_RECORD
  5
6E4
330
1
100
AcDbSymbolTableRecord
100
AcDbBlockTableRecord
  2
*D22
340
0
  0
BLOCK_RECORD
  5
6F2
330
1
100
AcDbSymbolTableRecord
100
AcDbBlockTableRecord
  2
*D23
340
0
  0
BLOCK_RECORD
  5
700
330
1
100
AcDbSymbolTableRecord
100
AcDbBlockTableRecord
  2
*D24
340
0
  0
ENDTAB
  0
ENDSEC
  0
SECTION
  2
BLOCKS
  0
BLOCK
  5
6C
330
6B
100
AcDbEntity
  8
0
100
AcDbBlockBegin
  2
*Model_Space
 70
     0
 10
0.0
 20
0.0
 30
0.0
  3
*Model_Space
  1

  0
ENDBLK
  5
6D
330
6B
100
AcDbEntity
  8
0
100
AcDbBlockEnd
  0
BLOCK
  5
68
330
67
100
AcDbEntity
 67
     1
  8
0
100
AcDbBlockBegin
  2
*Paper_Space
 70
     0
 10
0.0
 20
0.0
 30
0.0
  3
*Paper_Space
  1

  0
ENDBLK
  5
69
330
67
100
AcDbEntity
 67
     1
  8
0
100
AcDbBlockEnd
  0
BLOCK
  5
2DA
330
2D9
100
AcDbEntity
  8
0
100
AcDbBlockBegin
  2
_Open30
 70
     0
 10
0.0
 20
0.0
 30
0.0
  3
_Open30
  1

  0
LINE
  5
2DB
330
2D9
100
AcDbEntity
  8
0
  6
ByBlock
 62
     0
370
    -2
100
AcDbLine
 10
-1.0
 20
0.267949
 30
0.0
 11
0.0
 21
0.0
 31
0.0
  0
LINE
  5
2DC
330
2D9
100
AcDbEntity
  8
0
  6
ByBlock
 62
     0
370
    -2
100
AcDbLine
 10
0.0
 20
0.0
 30
0.0
 11
-1.0
 21
-0.267949
 31
0.0
  0
LINE
  5
2DD
330
2D9
100
AcDbEntity
  8
0
  6
ByBlock
 62
     0
370
    -2
100
AcDbLine
 10
0.0
 20
0.0
 30
0.0
 11
-1.0
 21
0.0
 31
0.0
  0
ENDBLK
  5
2DE
330
2D9
100
AcDbEntity
  8
0
100
AcDbBlockEnd
  0
BLOCK
  5
4EA
330
4E9
100
AcDbEntity
  8
0
100
AcDbBlockBegin
  2
*D1
 70
     1
 10
0.0
 20
0.0
 30
0.0
  3
*D1
  1

  0
LINE
  5
587
330
4E9
100
AcDbEntity
  8
0
 62
     0
370
    -2
100
AcDbLine
 10
494.996249
 20
131.926699
 30
0.0
 11
494.996249
 21
142.906505
 31
0.0
  0
LINE
  5
588
330
4E9
100
AcDbEntity
  8
0
 62
     0
370
    -2
100
AcDbLine
 10
574.996249
 20
131.926699
 30
0.0
 11
574.996249
 21
142.906505
 31
0.0
  0
LINE
  5
589
330
4E9
100
AcDbEntity
  8
0
 62
     0
370
    -2
100
AcDbLine
 10
497.496249
 20
141.656505
 30
0.0
 11
572.496249
 21
141.656505
 31
0.0
  0
INSERT
  5
58A
330
4E9
100
AcDbEntity
  8
0
 62
     0
370
    -2
100
AcDbBlockReference
  2
_Open30
 10
494.996249
 20
141.656505
 30
0.0
 41
2.5
 42
2.5
 43
2.5
 50
180.0
  0
INSERT
  5
58B
330
4E9
100
AcDbEntity
  8
0
 62
     0
370
    -2
100
AcDbBlockReference
  2
_Open30
 10
574.996249
 20
141.656505
 30
0.0
 41
2.5
 42
2.5
 43
2.5
  0
MTEXT
  5
58C
330
4E9
100
AcDbEntity
  8
0
 62
     4
100
AcDbMText
 10
534.996249
 20
143.781505
 30
0.0
 40
3.0
 41
0.0
 71
     5
 72
     1
  1
80
 73
     1
 44
1.0
1001
ACAD
1000
MTEXTBEGIN
1070
    73
1070
     1
1070
    44
1040
1.0
1070
    74
1070
     0
1000
MTEXTEND
  0
POINT
  5
58D
330
4E9
100
AcDbEntity
  8
Defpoints
 62
     0
100
AcDbPoint
 10
494.996249
 20
131.676699
 30
0.0
  0
POINT
  5
58E
330
4E9
100
AcDbEntity
  8
Defpoints
 62
     0
100
AcDbPoint
 10
574.996249
 20
131.676699
 30
0.0
  0
POINT
  5
58F
330
4E9
100
AcDbEntity
  8
Defpoints
 62
     0
100
AcDbPoint
 10
574.996249
 20
141.656505
 30
0.0
  0
ENDBLK
  5
4EB
330
4E9
100
AcDbEntity
  8
0
100
AcDbBlockEnd
  0
BLOCK
  5
4F6
330
4F5
100
AcDbEntity
  8
0
100
AcDbBlockBegin
  2
*D2
 70
     1
 10
0.0
 20
0.0
 30
0.0
  3
*D2
  1

  0
LINE
  5
590
330
4F5
100
AcDbEntity
  8
0
 62
     0
370
    -2
100
AcDbLine
 10
494.746249
 20
100.676699
 30
0.0
 11
480.3352429999997
 21
100.676699
 31
0.0
  0
LINE
  5
591
330
4F5
100
AcDbEntity
  8
0
 62
     0
370
    -2
100
AcDbLine
 10
494.746249
 20
131.676699
 30
0.0
 11
480.3352429999998
 21
131.676699
 31
0.0
  0
LINE
  5
592
330
4F5
100
AcDbEntity
  8
0
 62
     0
370
    -2
100
AcDbLine
 10
481.5852429999997
 20
103.176699
 30
0.0
 11
481.5852429999998
 21
129.176699
 31
0.0
  0
INSERT
  5
593
330
4F5
100
AcDbEntity
  8
0
 62
     0
370
    -2
100
AcDbBlockReference
  2
_Open30
 10
481.5852429999997
 20
100.676699
 30
0.0
 41
2.5
 42
2.5
 43
2.5
 50
270.0
  0
INSERT
  5
594
330
4F5
100
AcDbEntity
  8
0
 62
     0
370
    -2
100
AcDbBlockReference
  2
_Open30
 10
481.5852429999998
 20
131.676699
 30
0.0
 41
2.5
 42
2.5
 43
2.5
 50
90.0
  0
MTEXT
  5
595
330
4F5
100
AcDbEntity
  8
0
 62
     4
100
AcDbMText
 10
479.4602429999997
 20
116.176699
 30
0.0
 40
3.0
 41
0.0
 71
     5
 72
     1
  1
31
 11
0.0000000000000001
 21
1.0
 31
0.0
 73
     1
 44
1.0
1001
ACAD
1000
MTEXTBEGIN
1070
    73
1070
     1
1070
    44
1040
1.0
1070
    74
1070
     0
1000
MTEXTEND
  0
POINT
  5
596
330
4F5
100
AcDbEntity
  8
Defpoints
 62
     0
100
AcDbPoint
 10
494.996249
 20
100.676699
 30
0.0
  0
POINT
  5
597
330
4F5
100
AcDbEntity
  8
Defpoints
 62
     0
100
AcDbPoint
 10
494.996249
 20
131.676699
 30
0.0
  0
POINT
  5
598
330
4F5
100
AcDbEntity
  8
Defpoints
 62
     0
100
AcDbPoint
 10
481.5852429999998
 20
131.676699
 30
0.0
  0
ENDBLK
  5
4F7
330
4F5
100
AcDbEntity
  8
0
100
AcDbBlockEnd
  0
BLOCK
  5
502
330
501
100
AcDbEntity
  8
0
100
AcDbBlockBegin
  2
*D3
 70
     1
 10
0.0
 20
0.0
 30
0.0
  3
*D3
  1

  0
LINE
  5
599
330
501
100
AcDbEntity
  8
0
 62
     0
370
    -2
100
AcDbLine
 10
384.755929
 20
100.426699
 30
0.0
 11
384.755929
 21
86.33628100000001
 31
0.0
  0
LINE
  5
59A
330
501
100
AcDbEntity
  8
0
 62
     0
370
    -2
100
AcDbLine
 10
464.755929
 20
100.426699
 30
0.0
 11
464.755929
 21
86.33628100000001
 31
0.0
  0
LINE
  5
59B
330
501
100
AcDbEntity
  8
0
 62
     0
370
    -2
100
AcDbLine
 10
387.255929
 20
87.58628100000001
 30
0.0
 11
462.2559289999999
 21
87.58628100000001
 31
0.0
  0
INSERT
  5
59C
330
501
100
AcDbEntity
  8
0
 62
     0
370
    -2
100
AcDbBlockReference
  2
_Open30
 10
384.755929
 20
87.58628100000001
 30
0.0
 41
2.5
 42
2.5
 43
2.5
 50
180.0
  0
INSERT
  5
59D
330
501
100
AcDbEntity
  8
0
 62
     0
370
    -2
100
AcDbBlockReference
  2
_Open30
 10
464.755929
 20
87.58628100000001
 30
0.0
 41
2.5
 42
2.5
 43
2.5
  0
MTEXT
  5
59E
330
501
100
AcDbEntity
  8
0
 62
     4
100
AcDbMText
 10
424.7559289999999
 20
89.71128100000001
 30
0.0
 40
3.0
 41
0.0
 71
     5
 72
     1
  1
80
 73
     1
 44
1.0
1001
ACAD
1000
MTEXTBEGIN
1070
    73
1070
     1
1070
    44
1040
1.0
1070
    74
1070
     0
1000
MTEXTEND
  0
POINT
  5
59F
330
501
100
AcDbEntity
  8
Defpoints
 62
     0
100
AcDbPoint
 10
384.755929
 20
100.676699
 30
0.0
  0
POINT
  5
5A0
330
501
100
AcDbEntity
  8
Defpoints
 62
     0
100
AcDbPoint
 10
464.755929
 20
100.676699
 30
0.0
  0
POINT
  5
5A1
330
501
100
AcDbEntity
  8
Defpoints
 62
     0
100
AcDbPoint
 10
464.755929
 20
87.58628100000001
 30
0.0
  0
ENDBLK
  5
503
330
501
100
AcDbEntity
  8
0
100
AcDbBlockEnd
  0
BLOCK
  5
5A5
330
5A4
100
AcDbEntity
  8
0
100
AcDbBlockBegin
  2
*D4
 70
     1
 10
0.0
 20
0.0
 30
0.0
  3
*D4
  1

  0
LINE
  5
5A6
330
5A4
100
AcDbEntity
  8
0
 62
     0
370
    -2
100
AcDbLine
 10
-178.2339678749101
 20
-812.0370112307897
 30
0.0
 11
-178.2339678749101
 21
-814.9466426527986
 31
0.0
  0
LINE
  5
5A7
330
5A4
100
AcDbEntity
  8
0
 62
     0
370
    -2
100
AcDbLine
 10
-180.6911549290304
 20
-812.0370112307897
 30
0.0
 11
-180.6911549290304
 21
-814.9466426527986
 31
0.0
  0
LINE
  5
5A8
330
5A4
100
AcDbEntity
  8
0
 62
     0
370
    -2
100
AcDbLine
 10
-175.7339678749101
 20
-813.6966426527985
 30
0.0
 11
-173.2339678749101
 21
-813.6966426527985
 31
0.0
  0
LINE
  5
5A9
330
5A4
100
AcDbEntity
  8
0
 62
     0
370
    -2
100
AcDbLine
 10
-183.1911549290304
 20
-813.6966426527985
 30
0.0
 11
-195.9411549290304
 21
-813.6966426527985
 31
0.0
  0
LINE
  5
5AA
330
5A4
100
AcDbEntity
  8
0
 62
     0
370
    -2
100
AcDbLine
 10
-178.2339678749101
 20
-813.6966426527985
 30
0.0
 11
-180.6911549290304
 21
-813.6966426527985
 31
0.0
  0
INSERT
  5
5AB
330
5A4
100
AcDbEntity
  8
0
 62
     0
370
    -2
100
AcDbBlockReference
  2
_Open30
 10
-178.2339678749101
 20
-813.6966426527985
 30
0.0
 41
2.5
 42
2.5
 43
2.5
 50
180.0
  0
INSERT
  5
5AC
330
5A4
100
AcDbEntity
  8
0
 62
     0
370
    -2
100
AcDbBlockReference
  2
_Open30
 10
-180.6911549290304
 20
-813.6966426527985
 30
0.0
 41
2.5
 42
2.5
 43
2.5
  0
MTEXT
  5
5AD
330
5A4
100
AcDbEntity
  8
0
 62
     4
100
AcDbMText
 10
-190.8161549290304
 20
-811.5716426527985
 30
0.0
 40
3.0
 41
0.0
 71
     5
 72
     1
  1
2.46
 73
     1
 44
1.0
1001
ACAD
1000
MTEXTBEGIN
1070
    73
1070
     1
1070
    44
1040
1.0
1070
    74
1070
     0
1000
MTEXTEND
  0
POINT
  5
5AE
330
5A4
100
AcDbEntity
  8
Defpoints
 62
     0
100
AcDbPoint
 10
-178.2339678749101
 20
-811.7870112307898
 30
0.0
  0
POINT
  5
5AF
330
5A4
100
AcDbEntity
  8
Defpoints
 62
     0
100
AcDbPoint
 10
-180.6911549290304
 20
-811.7870112307898
 30
0.0
  0
POINT
  5
5B0
330
5A4
100
AcDbEntity
  8
Defpoints
 62
     0
100
AcDbPoint
 10
-180.6911549290304
 20
-813.6966426527985
 30
0.0
  0
ENDBLK
  5
5B1
330
5A4
100
AcDbEntity
  8
0
100
AcDbBlockEnd
  0
BLOCK
  5
5B3
330
5B2
100
AcDbEntity
  8
0
100
AcDbBlockBegin
  2
*D5
 70
     1
 10
0.0
 20
0.0
 30
0.0
  3
*D5
  1

  0
LINE
  5
5B4
330
5B2
100
AcDbEntity
  8
0
 62
     0
370
    -2
100
AcDbLine
 10
-176.5958429688369
 20
-817.4931008035521
 30
0.0
 11
-176.5958429688369
 21
-820.0389928730155
 31
0.0
  0
LINE
  5
5B5
330
5B2
100
AcDbEntity
  8
0
 62
     0
370
    -2
100
AcDbLine
 10
-179.6900787669798
 20
-817.4931008035521
 30
0.0
 11
-179.6900787669798
 21
-820.0389928730155
 31
0.0
  0
LINE
  5
5B6
330
5B2
100
AcDbEntity
  8
0
 62
     0
370
    -2
100
AcDbLine
 10
-174.0958429688369
 20
-818.7889928730154
 30
0.0
 11
-171.5958429688369
 21
-818.7889928730154
 31
0.0
  0
LINE
  5
5B7
330
5B2
100
AcDbEntity
  8
0
 62
     0
370
    -2
100
AcDbLine
 10
-182.1900787669798
 20
-818.7889928730154
 30
0.0
 11
-196.0234121003131
 21
-818.7889928730154
 31
0.0
  0
LINE
  5
5B8
330
5B2
100
AcDbEntity
  8
0
 62
     0
370
    -2
100
AcDbLine
 10
-176.5958429688369
 20
-818.7889928730154
 30
0.0
 11
-179.6900787669798
 21
-818.7889928730154
 31
0.0
  0
INSERT
  5
5B9
330
5B2
100
AcDbEntity
  8
0
 62
     0
370
    -2
100
AcDbBlockReference
  2
_Open30
 10
-176.5958429688369
 20
-818.7889928730154
 30
0.0
 41
2.5
 42
2.5
 43
2.5
 50
180.0
  0
INSERT
  5
5BA
330
5B2
100
AcDbEntity
  8
0
 62
     0
370
    -2
100
AcDbBlockReference
  2
_Open30
 10
-179.6900787669798
 20
-818.7889928730154
 30
0.0
 41
2.5
 42
2.5
 43
2.5
  0
MTEXT
  5
5BB
330
5B2
100
AcDbEntity
  8
0
 62
     4
100
AcDbMText
 10
-190.8150787669798
 20
-816.9139928730155
 30
0.0
 40
2.5
 41
0.0
 71
     5
 72
     1
  1
15.47
  7
高2.5
 73
     1
 44
1.0
1001
ACAD
1000
MTEXTBEGIN
1070
    73
1070
     1
1070
    44
1040
1.0
1070
    74
1070
     0
1000
MTEXTEND
  0
POINT
  5
5BC
330
5B2
100
AcDbEntity
  8
Defpoints
 62
     0
100
AcDbPoint
 10
-176.5958429688369
 20
-817.2431008035522
 30
0.0
  0
POINT
  5
5BD
330
5B2
100
AcDbEntity
  8
Defpoints
 62
     0
100
AcDbPoint
 10
-179.6900787669798
 20
-817.2431008035522
 30
0.0
  0
POINT
  5
5BE
330
5B2
100
AcDbEntity
  8
Defpoints
 62
     0
100
AcDbPoint
 10
-179.6900787669798
 20
-818.7889928730154
 30
0.0
  0
ENDBLK
  5
5BF
330
5B2
100
AcDbEntity
  8
0
100
AcDbBlockEnd
  0
BLOCK
  5
5C1
330
5C0
100
AcDbEntity
  8
0
100
AcDbBlockBegin
  2
*D6
 70
     1
 10
0.0
 20
0.0
 30
0.0
  3
*D6
  1

  0
LINE
  5
5C2
330
5C0
100
AcDbEntity
  8
0
 62
     0
370
    -2
100
AcDbLine
 10
-174.8667113607514
 20
-822.9491905193986
 30
0.0
 11
-174.8667113607514
 21
-825.2222781817659
 31
0.0
  0
LINE
  5
5C3
330
5C0
100
AcDbEntity
  8
0
 62
     0
370
    -2
100
AcDbLine
 10
-178.8710163139432
 20
-822.9491905193986
 30
0.0
 11
-178.8710163139432
 21
-825.2222781817659
 31
0.0
  0
LINE
  5
5C4
330
5C0
100
AcDbEntity
  8
0
 62
     0
370
    -2
100
AcDbLine
 10
-172.3667113607514
 20
-823.9722781817658
 30
0.0
 11
-169.8667113607514
 21
-823.9722781817658
 31
0.0
  0
LINE
  5
5C5
330
5C0
100
AcDbEntity
  8
0
 62
     0
370
    -2
100
AcDbLine
 10
-181.3710163139432
 20
-823.9722781817658
 30
0.0
 11
-193.1210163139432
 21
-823.9722781817658
 31
0.0
  0
LINE
  5
5C6
330
5C0
100
AcDbEntity
  8
0
 62
     0
370
    -2
100
AcDbLine
 10
-174.8667113607514
 20
-823.9722781817658
 30
0.0
 11
-178.8710163139432
 21
-823.9722781817658
 31
0.0
  0
INSERT
  5
5C7
330
5C0
100
AcDbEntity
  8
0
 62
     0
370
    -2
100
AcDbBlockReference
  2
_Open30
 10
-174.8667113607514
 20
-823.9722781817658
 30
0.0
 41
2.5
 42
2.5
 43
2.5
 50
180.0
  0
INSERT
  5
5C8
330
5C0
100
AcDbEntity
  8
0
 62
     0
370
    -2
100
AcDbBlockReference
  2
_Open30
 10
-178.8710163139432
 20
-823.9722781817658
 30
0.0
 41
2.5
 42
2.5
 43
2.5
  0
MTEXT
  5
5C9
330
5C0
100
AcDbEntity
  8
0
 62
     4
100
AcDbMText
 10
-188.4960163139432
 20
-821.7472781817658
 30
0.0
 40
3.2
 41
0.0
 71
     5
 72
     1
  1
8.01
  7
高3.2
 73
     1
 44
1.0
1001
ACAD
1000
MTEXTBEGIN
1070
    73
1070
     1
1070
    44
1040
1.0
1070
    74
1070
     0
1000
MTEXTEND
  0
POINT
  5
5CA
330
5C0
100
AcDbEntity
  8
Defpoints
 62
     0
100
AcDbPoint
 10
-174.8667113607514
 20
-822.6991905193985
 30
0.0
  0
POINT
  5
5CB
330
5C0
100
AcDbEntity
  8
Defpoints
 62
     0
100
AcDbPoint
 10
-178.8710163139432
 20
-822.6991905193985
 30
0.0
  0
POINT
  5
5CC
330
5C0
100
AcDbEntity
  8
Defpoints
 62
     0
100
AcDbPoint
 10
-178.8710163139432
 20
-823.9722781817658
 30
0.0
  0
ENDBLK
  5
5CD
330
5C0
100
AcDbEntity
  8
0
100
AcDbBlockEnd
  0
BLOCK
  5
5CF
330
5CE
100
AcDbEntity
  8
0
100
AcDbBlockBegin
  2
*D7
 70
     1
 10
0.0
 20
0.0
 30
0.0
  3
*D7
  1

  0
LINE
  5
5D0
330
5CE
100
AcDbEntity
  8
0
 62
     0
370
    -2
100
AcDbLine
 10
-174.9577180627637
 20
-828.2234104874302
 30
0.0
 11
-174.9577180627637
 21
-830.0418239948866
 31
0.0
  0
LINE
  5
5D1
330
5CE
100
AcDbEntity
  8
0
 62
     0
370
    -2
100
AcDbLine
 10
-179.6900787669798
 20
-828.2234104874302
 30
0.0
 11
-179.6900787669798
 21
-830.0418239948866
 31
0.0
  0
LINE
  5
5D2
330
5CE
100
AcDbEntity
  8
0
 62
     0
370
    -2
100
AcDbLine
 10
-172.4577180627637
 20
-828.7918239948865
 30
0.0
 11
-169.9577180627637
 21
-828.7918239948865
 31
0.0
  0
LINE
  5
5D3
330
5CE
100
AcDbEntity
  8
0
 62
     0
370
    -2
100
AcDbLine
 10
-182.1900787669798
 20
-828.7918239948865
 30
0.0
 11
-203.9400787669798
 21
-828.7918239948865
 31
0.0
  0
LINE
  5
5D4
330
5CE
100
AcDbEntity
  8
0
 62
     0
370
    -2
100
AcDbLine
 10
-174.9577180627637
 20
-828.7918239948865
 30
0.0
 11
-179.6900787669798
 21
-828.7918239948865
 31
0.0
  0
INSERT
  5
5D5
330
5CE
100
AcDbEntity
  8
0
 62
     0
370
    -2
100
AcDbBlockReference
  2
_Open30
 10
-174.9577180627637
 20
-828.7918239948865
 30
0.0
 41
2.5
 42
2.5
 43
2.5
 50
180.0
  0
INSERT
  5
5D6
330
5CE
100
AcDbEntity
  8
0
 62
     0
370
    -2
100
AcDbBlockReference
  2
_Open30
 10
-179.6900787669798
 20
-828.7918239948865
 30
0.0
 41
2.5
 42
2.5
 43
2.5
  0
MTEXT
  5
5D7
330
5CE
100
AcDbEntity
  8
0
 62
     4
100
AcDbMText
 10
-194.3150787669798
 20
-825.9168239948866
 30
0.0
 40
4.5
 41
0.0
 71
     5
 72
     1
  1
47.32
  7
高4.5
 73
     1
 44
1.0
1001
ACAD
1000
MTEXTBEGIN
1070
    73
1070
     1
1070
    44
1040
1.0
1070
    74
1070
     0
1000
MTEXTEND
  0
POINT
  5
5D8
330
5CE
100
AcDbEntity
  8
Defpoints
 62
     0
100
AcDbPoint
 10
-174.9577180627637
 20
-827.9734104874302
 30
0.0
  0
POINT
  5
5D9
330
5CE
100
AcDbEntity
  8
Defpoints
 62
     0
100
AcDbPoint
 10
-179.6900787669798
 20
-827.9734104874302
 30
0.0
  0
POINT
  5
5DA
330
5CE
100
AcDbEntity
  8
Defpoints
 62
     0
100
AcDbPoint
 10
-179.6900787669798
 20
-828.7918239948865
 30
0.0
  0
ENDBLK
  5
5DB
330
5CE
100
AcDbEntity
  8
0
100
AcDbBlockEnd
  0
BLOCK
  5
5DD
330
5DC
100
AcDbEntity
  8
0
100
AcDbBlockBegin
  2
*D8
 70
     1
 10
0.0
 20
0.0
 30
0.0
  3
*D8
  1

  0
LINE
  5
5DE
330
5DC
100
AcDbEntity
  8
0
 62
     0
370
    -2
100
AcDbLine
 10
-153.4800817947562
 20
-812.0370112307897
 30
0.0
 11
-153.4800817947562
 21
-814.9466426527986
 31
0.0
  0
LINE
  5
5DF
330
5DC
100
AcDbEntity
  8
0
 62
     0
370
    -2
100
AcDbLine
 10
-155.9372688488765
 20
-812.0370112307897
 30
0.0
 11
-155.9372688488765
 21
-814.9466426527986
 31
0.0
  0
LINE
  5
5E0
330
5DC
100
AcDbEntity
  8
0
 62
     0
370
    -2
100
AcDbLine
 10
-150.9800817947562
 20
-813.6966426527985
 30
0.0
 11
-148.4800817947562
 21
-813.6966426527985
 31
0.0
  0
LINE
  5
5E1
330
5DC
100
AcDbEntity
  8
0
 62
     0
370
    -2
100
AcDbLine
 10
-158.4372688488765
 20
-813.6966426527985
 30
0.0
 11
-180.0372688488765
 21
-813.6966426527985
 31
0.0
  0
LINE
  5
5E2
330
5DC
100
AcDbEntity
  8
0
 62
     0
370
    -2
100
AcDbLine
 10
-153.4800817947562
 20
-813.6966426527985
 30
0.0
 11
-155.9372688488765
 21
-813.6966426527985
 31
0.0
  0
INSERT
  5
5E3
330
5DC
100
AcDbEntity
  8
0
 62
     0
370
    -2
100
AcDbBlockReference
  2
_Open30
 10
-153.4800817947562
 20
-813.6966426527985
 30
0.0
 41
2.5
 42
2.5
 43
2.5
 50
180.0
  0
INSERT
  5
5E4
330
5DC
100
AcDbEntity
  8
0
 62
     0
370
    -2
100
AcDbBlockReference
  2
_Open30
 10
-155.9372688488765
 20
-813.6966426527985
 30
0.0
 41
2.5
 42
2.5
 43
2.5
  0
MTEXT
  5
5E5
330
5DC
100
AcDbEntity
  8
0
 62
     4
100
AcDbMText
 10
-170.4872688488765
 20
-809.9216426527986
 30
0.0
 40
6.299999999999999
 41
0.0
 71
     5
 72
     1
  1
0.25
  7
高6.3
 73
     1
 44
1.0
1001
ACAD
1000
MTEXTBEGIN
1070
    73
1070
     1
1070
    44
1040
1.0
1070
    74
1070
     0
1000
MTEXTEND
  0
POINT
  5
5E6
330
5DC
100
AcDbEntity
  8
Defpoints
 62
     0
100
AcDbPoint
 10
-153.4800817947562
 20
-811.7870112307898
 30
0.0
  0
POINT
  5
5E7
330
5DC
100
AcDbEntity
  8
Defpoints
 62
     0
100
AcDbPoint
 10
-155.9372688488765
 20
-811.7870112307898
 30
0.0
  0
POINT
  5
5E8
330
5DC
100
AcDbEntity
  8
Defpoints
 62
     0
100
AcDbPoint
 10
-155.9372688488765
 20
-813.6966426527985
 30
0.0
  0
ENDBLK
  5
5E9
330
5DC
100
AcDbEntity
  8
0
100
AcDbBlockEnd
  0
BLOCK
  5
5EB
330
5EA
100
AcDbEntity
  8
0
100
AcDbBlockBegin
  2
*D9
 70
     1
 10
0.0
 20
0.0
 30
0.0
  3
*D9
  1

  0
LINE
  5
5EC
330
5EA
100
AcDbEntity
  8
0
 62
     0
370
    -2
100
AcDbLine
 10
-151.841956888683
 20
-817.4931008035521
 30
0.0
 11
-151.841956888683
 21
-820.0389928730155
 31
0.0
  0
LINE
  5
5ED
330
5EA
100
AcDbEntity
  8
0
 62
     0
370
    -2
100
AcDbLine
 10
-154.9361926868259
 20
-817.4931008035521
 30
0.0
 11
-154.9361926868259
 21
-820.0389928730155
 31
0.0
  0
LINE
  5
5EE
330
5EA
100
AcDbEntity
  8
0
 62
     0
370
    -2
100
AcDbLine
 10
-149.341956888683
 20
-818.7889928730154
 30
0.0
 11
-146.841956888683
 21
-818.7889928730154
 31
0.0
  0
LINE
  5
5EF
330
5EA
100
AcDbEntity
  8
0
 62
     0
370
    -2
100
AcDbLine
 10
-157.4361926868259
 20
-818.7889928730154
 30
0.0
 11
-169.4361926868259
 21
-818.7889928730154
 31
0.0
  0
LINE
  5
5F0
330
5EA
100
AcDbEntity
  8
0
 62
     0
370
    -2
100
AcDbLine
 10
-151.841956888683
 20
-818.7889928730154
 30
0.0
 11
-154.9361926868259
 21
-818.7889928730154
 31
0.0
  0
INSERT
  5
5F1
330
5EA
100
AcDbEntity
  8
0
 62
     0
370
    -2
100
AcDbBlockReference
  2
_Open30
 10
-151.841956888683
 20
-818.7889928730154
 30
0.0
 41
2.5
 42
2.5
 43
2.5
 50
180.0
  0
INSERT
  5
5F2
330
5EA
100
AcDbEntity
  8
0
 62
     0
370
    -2
100
AcDbBlockReference
  2
_Open30
 10
-154.9361926868259
 20
-818.7889928730154
 30
0.0
 41
2.5
 42
2.5
 43
2.5
  0
MTEXT
  5
5F3
330
5EA
100
AcDbEntity
  8
0
 62
     4
100
AcDbMText
 10
-164.8111926868259
 20
-816.6639928730154
 30
0.0
 40
3.0
 41
0.0
 71
     5
 72
     1
  1
1.55
 73
     1
 44
1.0
1001
ACAD
1000
MTEXTBEGIN
1070
    73
1070
     1
1070
    44
1040
1.0
1070
    74
1070
     0
1000
MTEXTEND
  0
POINT
  5
5F4
330
5EA
100
AcDbEntity
  8
Defpoints
 62
     0
100
AcDbPoint
 10
-151.841956888683
 20
-817.2431008035522
 30
0.0
  0
POINT
  5
5F5
330
5EA
100
AcDbEntity
  8
Defpoints
 62
     0
100
AcDbPoint
 10
-154.9361926868259
 20
-817.2431008035522
 30
0.0
  0
POINT
  5
5F6
330
5EA
100
AcDbEntity
  8
Defpoints
 62
     0
100
AcDbPoint
 10
-154.9361926868259
 20
-818.7889928730154
 30
0.0
  0
ENDBLK
  5
5F7
330
5EA
100
AcDbEntity
  8
0
100
AcDbBlockEnd
  0
BLOCK
  5
5F9
330
5F8
100
AcDbEntity
  8
0
100
AcDbBlockBegin
  2
*D10
 70
     1
 10
0.0
 20
0.0
 30
0.0
  3
*D10
  1

  0
LINE
  5
5FA
330
5F8
100
AcDbEntity
  8
0
 62
     0
370
    -2
100
AcDbLine
 10
-150.1128252805975
 20
-822.9491905193986
 30
0.0
 11
-150.1128252805975
 21
-825.2222781817659
 31
0.0
  0
LINE
  5
5FB
330
5F8
100
AcDbEntity
  8
0
 62
     0
370
    -2
100
AcDbLine
 10
-154.1171302337894
 20
-822.9491905193986
 30
0.0
 11
-154.1171302337894
 21
-825.2222781817659
 31
0.0
  0
LINE
  5
5FC
330
5F8
100
AcDbEntity
  8
0
 62
     0
370
    -2
100
AcDbLine
 10
-147.6128252805976
 20
-823.9722781817658
 30
0.0
 11
-145.1128252805975
 21
-823.9722781817658
 31
0.0
  0
LINE
  5
5FD
330
5F8
100
AcDbEntity
  8
0
 62
     0
370
    -2
100
AcDbLine
 10
-156.6171302337894
 20
-823.9722781817658
 30
0.0
 11
-164.9504635671227
 21
-823.9722781817658
 31
0.0
  0
LINE
  5
5FE
330
5F8
100
AcDbEntity
  8
0
 62
     0
370
    -2
100
AcDbLine
 10
-150.1128252805975
 20
-823.9722781817658
 30
0.0
 11
-154.1171302337894
 21
-823.9722781817658
 31
0.0
  0
INSERT
  5
5FF
330
5F8
100
AcDbEntity
  8
0
 62
     0
370
    -2
100
AcDbBlockReference
  2
_Open30
 10
-150.1128252805975
 20
-823.9722781817658
 30
0.0
 41
2.5
 42
2.5
 43
2.5
 50
180.0
  0
INSERT
  5
600
330
5F8
100
AcDbEntity
  8
0
 62
     0
370
    -2
100
AcDbBlockReference
  2
_Open30
 10
-154.1171302337894
 20
-823.9722781817658
 30
0.0
 41
2.5
 42
2.5
 43
2.5
  0
MTEXT
  5
601
330
5F8
100
AcDbEntity
  8
0
 62
     4
100
AcDbMText
 10
-162.4921302337894
 20
-822.3472781817658
 30
0.0
 40
2.0
 41
0.0
 71
     5
 72
     1
  1
0.8
  7
高2
 73
     1
 44
1.0
1001
ACAD
1000
MTEXTBEGIN
1070
    73
1070
     1
1070
    44
1040
1.0
1070
    74
1070
     0
1000
MTEXTEND
  0
POINT
  5
602
330
5F8
100
AcDbEntity
  8
Defpoints
 62
     0
100
AcDbPoint
 10
-150.1128252805975
 20
-822.6991905193985
 30
0.0
  0
POINT
  5
603
330
5F8
100
AcDbEntity
  8
Defpoints
 62
     0
100
AcDbPoint
 10
-154.1171302337894
 20
-822.6991905193985
 30
0.0
  0
POINT
  5
604
330
5F8
100
AcDbEntity
  8
Defpoints
 62
     0
100
AcDbPoint
 10
-154.1171302337894
 20
-823.9722781817658
 30
0.0
  0
ENDBLK
  5
605
330
5F8
100
AcDbEntity
  8
0
100
AcDbBlockEnd
  0
BLOCK
  5
607
330
606
100
AcDbEntity
  8
0
100
AcDbBlockBegin
  2
*D11
 70
     1
 10
0.0
 20
0.0
 30
0.0
  3
*D11
  1

  0
LINE
  5
608
330
606
100
AcDbEntity
  8
0
 62
     0
370
    -2
100
AcDbLine
 10
-150.2038319826098
 20
-828.2234104874302
 30
0.0
 11
-150.2038319826098
 21
-830.0418239948866
 31
0.0
  0
LINE
  5
609
330
606
100
AcDbEntity
  8
0
 62
     0
370
    -2
100
AcDbLine
 10
-154.9361926868259
 20
-828.2234104874302
 30
0.0
 11
-154.9361926868259
 21
-830.0418239948866
 31
0.0
  0
LINE
  5
60A
330
606
100
AcDbEntity
  8
0
 62
     0
370
    -2
100
AcDbLine
 10
-147.7038319826099
 20
-828.7918239948865
 30
0.0
 11
-145.2038319826098
 21
-828.7918239948865
 31
0.0
  0
LINE
  5
60B
330
606
100
AcDbEntity
  8
0
 62
     0
370
    -2
100
AcDbLine
 10
-157.4361926868259
 20
-828.7918239948865
 30
0.0
 11
-172.1861926868259
 21
-828.7918239948865
 31
0.0
  0
LINE
  5
60C
330
606
100
AcDbEntity
  8
0
 62
     0
370
    -2
100
AcDbLine
 10
-150.2038319826098
 20
-828.7918239948865
 30
0.0
 11
-154.9361926868259
 21
-828.7918239948865
 31
0.0
  0
INSERT
  5
60D
330
606
100
AcDbEntity
  8
0
 62
     0
370
    -2
100
AcDbBlockReference
  2
_Open30
 10
-150.2038319826098
 20
-828.7918239948865
 30
0.0
 41
2.5
 42
2.5
 43
2.5
 50
180.0
  0
INSERT
  5
60E
330
606
100
AcDbEntity
  8
0
 62
     0
370
    -2
100
AcDbBlockReference
  2
_Open30
 10
-154.9361926868259
 20
-828.7918239948865
 30
0.0
 41
2.5
 42
2.5
 43
2.5
  0
MTEXT
  5
60F
330
606
100
AcDbEntity
  8
0
 62
     4
100
AcDbMText
 10
-166.0611926868259
 20
-826.6668239948867
 30
0.0
 40
3.0
 41
0.0
 71
     5
 72
     1
  1
18.93
 73
     1
 44
1.0
1001
ACAD
1000
MTEXTBEGIN
1070
    73
1070
     1
1070
    44
1040
1.0
1070
    74
1070
     0
1000
MTEXTEND
  0
POINT
  5
610
330
606
100
AcDbEntity
  8
Defpoints
 62
     0
100
AcDbPoint
 10
-150.2038319826098
 20
-827.9734104874302
 30
0.0
  0
POINT
  5
611
330
606
100
AcDbEntity
  8
Defpoints
 62
     0
100
AcDbPoint
 10
-154.9361926868259
 20
-827.9734104874302
 30
0.0
  0
POINT
  5
612
330
606
100
AcDbEntity
  8
Defpoints
 62
     0
100
AcDbPoint
 10
-154.9361926868259
 20
-828.7918239948865
 30
0.0
  0
ENDBLK
  5
613
330
606
100
AcDbEntity
  8
0
100
AcDbBlockEnd
  0
BLOCK
  5
615
330
614
100
AcDbEntity
  8
0
100
AcDbBlockBegin
  2
*D12
 70
     1
 10
0.0
 20
0.0
 30
0.0
  3
*D12
  1

  0
LINE
  5
616
330
614
100
AcDbEntity
  8
0
 62
     0
370
    -2
100
AcDbLine
 10
-153.0082588337482
 20
-833.2792506940199
 30
0.0
 11
-153.0082588337482
 21
-835.5891717708955
 31
0.0
  0
LINE
  5
617
330
614
100
AcDbEntity
  8
0
 62
     0
370
    -2
100
AcDbLine
 10
-157.5969340358961
 20
-833.2792506940199
 30
0.0
 11
-157.5969340358961
 21
-835.5891717708955
 31
0.0
  0
LINE
  5
618
330
614
100
AcDbEntity
  8
0
 62
     0
370
    -2
100
AcDbLine
 10
-150.5082588337482
 20
-834.3391717708955
 30
0.0
 11
-148.0082588337482
 21
-834.3391717708955
 31
0.0
  0
LINE
  5
619
330
614
100
AcDbEntity
  8
0
 62
     0
370
    -2
100
AcDbLine
 10
-160.0969340358961
 20
-834.3391717708955
 30
0.0
 11
-174.8469340358961
 21
-834.3391717708955
 31
0.0
  0
LINE
  5
61A
330
614
100
AcDbEntity
  8
0
 62
     0
370
    -2
100
AcDbLine
 10
-153.0082588337482
 20
-834.3391717708955
 30
0.0
 11
-157.5969340358961
 21
-834.3391717708955
 31
0.0
  0
INSERT
  5
61B
330
614
100
AcDbEntity
  8
0
 62
     0
370
    -2
100
AcDbBlockReference
  2
_Open30
 10
-153.0082588337482
 20
-834.3391717708955
 30
0.0
 41
2.5
 42
2.5
 43
2.5
 50
180.0
  0
INSERT
  5
61C
330
614
100
AcDbEntity
  8
0
 62
     0
370
    -2
100
AcDbBlockReference
  2
_Open30
 10
-157.5969340358961
 20
-834.3391717708955
 30
0.0
 41
2.5
 42
2.5
 43
2.5
  0
MTEXT
  5
61D
330
614
100
AcDbEntity
  8
0
 62
     4
100
AcDbMText
 10
-168.7219340358961
 20
-832.2141717708955
 30
0.0
 40
3.0
 41
0.0
 71
     5
 72
     1
  1
13.77
 73
     1
 44
1.0
1001
ACAD
1000
MTEXTBEGIN
1070
    73
1070
     1
1070
    44
1040
1.0
1070
    74
1070
     0
1000
MTEXTEND
  0
POINT
  5
61E
330
614
100
AcDbEntity
  8
Defpoints
 62
     0
100
AcDbPoint
 10
-153.0082588337482
 20
-833.02925069402
 30
0.0
  0
POINT
  5
61F
330
614
100
AcDbEntity
  8
Defpoints
 62
     0
100
AcDbPoint
 10
-157.5969340358961
 20
-833.02925069402
 30
0.0
  0
POINT
  5
620
330
614
100
AcDbEntity
  8
Defpoints
 62
     0
100
AcDbPoint
 10
-157.5969340358961
 20
-834.3391717708955
 30
0.0
  0
ENDBLK
  5
621
330
614
100
AcDbEntity
  8
0
100
AcDbBlockEnd
  0
BLOCK
  5
623
330
622
100
AcDbEntity
  8
0
100
AcDbBlockBegin
  2
*D13
 70
     1
 10
0.0
 20
0.0
 30
0.0
  3
*D13
  1

  0
LINE
  5
624
330
622
100
AcDbEntity
  8
0
 62
     0
370
    -2
100
AcDbLine
 10
-160.1045416668985
 20
-802.3497593757456
 30
0.0
 11
-160.1045416668985
 21
-794.9532258978079
 31
0.0
  0
LINE
  5
625
330
622
100
AcDbEntity
  8
0
 62
     0
370
    -2
100
AcDbLine
 10
-170.0430160363885
 20
-802.3497593757456
 30
0.0
 11
-170.0430160363885
 21
-794.9532258978079
 31
0.0
  0
LINE
  5
626
330
622
100
AcDbEntity
  8
0
 62
     0
370
    -2
100
AcDbLine
 10
-162.6045416668985
 20
-796.2032258978078
 30
0.0
 11
-167.5430160363885
 21
-796.2032258978078
 31
0.0
  0
INSERT
  5
627
330
622
100
AcDbEntity
  8
0
 62
     0
370
    -2
100
AcDbBlockReference
  2
_Open30
 10
-160.1045416668985
 20
-796.2032258978078
 30
0.0
 41
2.5
 42
2.5
 43
2.5
  0
INSERT
  5
628
330
622
100
AcDbEntity
  8
0
 62
     0
370
    -2
100
AcDbBlockReference
  2
_Open30
 10
-170.0430160363885
 20
-796.2032258978078
 30
0.0
 41
2.5
 42
2.5
 43
2.5
 50
180.0
  0
MTEXT
  5
629
330
622
100
AcDbEntity
  8
0
 62
     4
100
AcDbMText
 10
-165.0737788516435
 20
-793.1282258978078
 30
0.0
 40
3.0
 41
0.0
 71
     5
 72
     1
  1
9.94\H0.7X;\S+0^ -0.02;
 73
     1
 44
1.0
1001
ACAD
1000
MTEXTBEGIN
1070
    73
1070
     1
1070
    44
1040
1.0
1070
    74
1070
     0
1000
MTEXTEND
  0
POINT
  5
62A
330
622
100
AcDbEntity
  8
Defpoints
 62
     0
100
AcDbPoint
 10
-160.1045416668985
 20
-802.5997593757455
 30
0.0
  0
POINT
  5
62B
330
622
100
AcDbEntity
  8
Defpoints
 62
     0
100
AcDbPoint
 10
-170.0430160363885
 20
-802.5997593757455
 30
0.0
  0
POINT
  5
62C
330
622
100
AcDbEntity
  8
Defpoints
 62
     0
100
AcDbPoint
 10
-170.0430160363885
 20
-796.2032258978078
 30
0.0
  0
ENDBLK
  5
62D
330
622
100
AcDbEntity
  8
0
100
AcDbBlockEnd
  0
BLOCK
  5
683
330
682
100
AcDbEntity
  8
0
100
AcDbBlockBegin
  2
*D15
 70
     1
 10
0.0
 20
0.0
 30
0.0
  3
*D15
  1

  0
LINE
  5
70C
330
682
100
AcDbEntity
  8
0
 62
     0
370
    -2
100
AcDbLine
 10
995.7762416141665
 20
191.0783826674516
 30
0.0
 11
995.7762416141665
 21
188.1687512454427
 31
0.0
  0
LINE
  5
70D
330
682
100
AcDbEntity
  8
0
 62
     0
370
    -2
100
AcDbLine
 10
993.3190545600464
 20
191.0783826674516
 30
0.0
 11
993.3190545600464
 21
188.1687512454427
 31
0.0
  0
LINE
  5
70E
330
682
100
AcDbEntity
  8
0
 62
     0
370
    -2
100
AcDbLine
 10
998.2762416141666
 20
189.4187512454427
 30
0.0
 11
1000.776241614167
 21
189.4187512454427
 31
0.0
  0
LINE
  5
70F
330
682
100
AcDbEntity
  8
0
 62
     0
370
    -2
100
AcDbLine
 10
990.8190545600463
 20
189.4187512454427
 30
0.0
 11
978.0690545600462
 21
189.4187512454427
 31
0.0
  0
LINE
  5
710
330
682
100
AcDbEntity
  8
0
 62
     0
370
    -2
100
AcDbLine
 10
995.7762416141665
 20
189.4187512454427
 30
0.0
 11
993.3190545600464
 21
189.4187512454427
 31
0.0
  0
INSERT
  5
711
330
682
100
AcDbEntity
  8
0
 62
     0
370
    -2
100
AcDbBlockReference
  2
_Open30
 10
995.7762416141665
 20
189.4187512454427
 30
0.0
 41
2.5
 42
2.5
 43
2.5
 50
180.0
  0
INSERT
  5
712
330
682
100
AcDbEntity
  8
0
 62
     0
370
    -2
100
AcDbBlockReference
  2
_Open30
 10
993.3190545600464
 20
189.4187512454427
 30
0.0
 41
2.5
 42
2.5
 43
2.5
  0
MTEXT
  5
713
330
682
100
AcDbEntity
  8
0
 62
     4
100
AcDbMText
 10
983.1940545600463
 20
191.5437512454427
 30
0.0
 40
3.0
 41
0.0
 71
     5
 72
     1
  1
2.46
 73
     1
 44
1.0
1001
ACAD
1000
MTEXTBEGIN
1070
    73
1070
     1
1070
    44
1040
1.0
1070
    74
1070
     0
1000
MTEXTEND
  0
POINT
  5
714
330
682
100
AcDbEntity
  8
Defpoints
 62
     0
100
AcDbPoint
 10
995.7762416141665
 20
191.3283826674516
 30
0.0
  0
POINT
  5
715
330
682
100
AcDbEntity
  8
Defpoints
 62
     0
100
AcDbPoint
 10
993.3190545600464
 20
191.3283826674516
 30
0.0
  0
POINT
  5
716
330
682
100
AcDbEntity
  8
Defpoints
 62
     0
100
AcDbPoint
 10
993.3190545600464
 20
189.4187512454427
 30
0.0
  0
ENDBLK
  5
684
330
682
100
AcDbEntity
  8
0
100
AcDbBlockEnd
  0
BLOCK
  5
691
330
690
100
AcDbEntity
  8
0
100
AcDbBlockBegin
  2
*D16
 70
     1
 10
0.0
 20
0.0
 30
0.0
  3
*D16
  1

  0
LINE
  5
717
330
690
100
AcDbEntity
  8
0
 62
     0
370
    -2
100
AcDbLine
 10
997.4143665202397
 20
185.6222930946892
 30
0.0
 11
997.4143665202397
 21
183.0764010252259
 31
0.0
  0
LINE
  5
718
330
690
100
AcDbEntity
  8
0
 62
     0
370
    -2
100
AcDbLine
 10
994.3201307220968
 20
185.6222930946892
 30
0.0
 11
994.3201307220968
 21
183.0764010252259
 31
0.0
  0
LINE
  5
719
330
690
100
AcDbEntity
  8
0
 62
     0
370
    -2
100
AcDbLine
 10
999.9143665202398
 20
184.3264010252259
 30
0.0
 11
1002.41436652024
 21
184.3264010252259
 31
0.0
  0
LINE
  5
71A
330
690
100
AcDbEntity
  8
0
 62
     0
370
    -2
100
AcDbLine
 10
991.8201307220968
 20
184.3264010252259
 30
0.0
 11
977.9867973887636
 21
184.3264010252259
 31
0.0
  0
LINE
  5
71B
330
690
100
AcDbEntity
  8
0
 62
     0
370
    -2
100
AcDbLine
 10
997.4143665202397
 20
184.3264010252259
 30
0.0
 11
994.3201307220968
 21
184.3264010252259
 31
0.0
  0
INSERT
  5
71C
330
690
100
AcDbEntity
  8
0
 62
     0
370
    -2
100
AcDbBlockReference
  2
_Open30
 10
997.4143665202397
 20
184.3264010252259
 30
0.0
 41
2.5
 42
2.5
 43
2.5
 50
180.0
  0
INSERT
  5
71D
330
690
100
AcDbEntity
  8
0
 62
     0
370
    -2
100
AcDbBlockReference
  2
_Open30
 10
994.3201307220968
 20
184.3264010252259
 30
0.0
 41
2.5
 42
2.5
 43
2.5
  0
MTEXT
  5
71E
330
690
100
AcDbEntity
  8
0
 62
     4
100
AcDbMText
 10
983.1951307220968
 20
186.2014010252259
 30
0.0
 40
2.5
 41
0.0
 71
     5
 72
     1
  1
15.47
  7
高2.5
 73
     1
 44
1.0
1001
ACAD
1000
MTEXTBEGIN
1070
    73
1070
     1
1070
    44
1040
1.0
1070
    74
1070
     0
1000
MTEXTEND
  0
POINT
  5
71F
330
690
100
AcDbEntity
  8
Defpoints
 62
     0
100
AcDbPoint
 10
997.4143665202397
 20
185.8722930946892
 30
0.0
  0
POINT
  5
720
330
690
100
AcDbEntity
  8
Defpoints
 62
     0
100
AcDbPoint
 10
994.3201307220968
 20
185.8722930946892
 30
0.0
  0
POINT
  5
721
330
690
100
AcDbEntity
  8
Defpoints
 62
     0
100
AcDbPoint
 10
994.3201307220968
 20
184.3264010252259
 30
0.0
  0
ENDBLK
  5
692
330
690
100
AcDbEntity
  8
0
100
AcDbBlockEnd
  0
BLOCK
  5
69F
330
69E
100
AcDbEntity
  8
0
100
AcDbBlockBegin
  2
*D17
 70
     1
 10
0.0
 20
0.0
 30
0.0
  3
*D17
  1

  0
LINE
  5
722
330
69E
100
AcDbEntity
  8
0
 62
     0
370
    -2
100
AcDbLine
 10
999.1434981283253
 20
180.1662033788427
 30
0.0
 11
999.1434981283253
 21
177.8931157164754
 31
0.0
  0
LINE
  5
723
330
69E
100
AcDbEntity
  8
0
 62
     0
370
    -2
100
AcDbLine
 10
995.1391931751334
 20
180.1662033788427
 30
0.0
 11
995.1391931751334
 21
177.8931157164754
 31
0.0
  0
LINE
  5
724
330
69E
100
AcDbEntity
  8
0
 62
     0
370
    -2
100
AcDbLine
 10
1001.643498128325
 20
179.1431157164754
 30
0.0
 11
1004.143498128325
 21
179.1431157164754
 31
0.0
  0
LINE
  5
725
330
69E
100
AcDbEntity
  8
0
 62
     0
370
    -2
100
AcDbLine
 10
992.6391931751334
 20
179.1431157164754
 30
0.0
 11
980.8891931751334
 21
179.1431157164754
 31
0.0
  0
LINE
  5
726
330
69E
100
AcDbEntity
  8
0
 62
     0
370
    -2
100
AcDbLine
 10
999.1434981283253
 20
179.1431157164754
 30
0.0
 11
995.1391931751334
 21
179.1431157164754
 31
0.0
  0
INSERT
  5
727
330
69E
100
AcDbEntity
  8
0
 62
     0
370
    -2
100
AcDbBlockReference
  2
_Open30
 10
999.1434981283253
 20
179.1431157164754
 30
0.0
 41
2.5
 42
2.5
 43
2.5
 50
180.0
  0
INSERT
  5
728
330
69E
100
AcDbEntity
  8
0
 62
     0
370
    -2
100
AcDbBlockReference
  2
_Open30
 10
995.1391931751334
 20
179.1431157164754
 30
0.0
 41
2.5
 42
2.5
 43
2.5
  0
MTEXT
  5
729
330
69E
100
AcDbEntity
  8
0
 62
     4
100
AcDbMText
 10
985.5141931751333
 20
181.3681157164754
 30
0.0
 40
3.2
 41
0.0
 71
     5
 72
     1
  1
8.01
  7
高3.2
 73
     1
 44
1.0
1001
ACAD
1000
MTEXTBEGIN
1070
    73
1070
     1
1070
    44
1040
1.0
1070
    74
1070
     0
1000
MTEXTEND
  0
POINT
  5
72A
330
69E
100
AcDbEntity
  8
Defpoints
 62
     0
100
AcDbPoint
 10
999.1434981283253
 20
180.4162033788427
 30
0.0
  0
POINT
  5
72B
330
69E
100
AcDbEntity
  8
Defpoints
 62
     0
100
AcDbPoint
 10
995.1391931751334
 20
180.4162033788427
 30
0.0
  0
POINT
  5
72C
330
69E
100
AcDbEntity
  8
Defpoints
 62
     0
100
AcDbPoint
 10
995.1391931751334
 20
179.1431157164754
 30
0.0
  0
ENDBLK
  5
6A0
330
69E
100
AcDbEntity
  8
0
100
AcDbBlockEnd
  0
BLOCK
  5
6AD
330
6AC
100
AcDbEntity
  8
0
100
AcDbBlockBegin
  2
*D18
 70
     1
 10
0.0
 20
0.0
 30
0.0
  3
*D18
  1

  0
LINE
  5
72D
330
6AC
100
AcDbEntity
  8
0
 62
     0
370
    -2
100
AcDbLine
 10
999.0524914263131
 20
174.8919834108111
 30
0.0
 11
999.0524914263131
 21
173.0735699033547
 31
0.0
  0
LINE
  5
72E
330
6AC
100
AcDbEntity
  8
0
 62
     0
370
    -2
100
AcDbLine
 10
994.3201307220968
 20
174.8919834108111
 30
0.0
 11
994.3201307220968
 21
173.0735699033547
 31
0.0
  0
LINE
  5
72F
330
6AC
100
AcDbEntity
  8
0
 62
     0
370
    -2
100
AcDbLine
 10
1001.552491426313
 20
174.3235699033547
 30
0.0
 11
1004.052491426313
 21
174.3235699033547
 31
0.0
  0
LINE
  5
730
330
6AC
100
AcDbEntity
  8
0
 62
     0
370
    -2
100
AcDbLine
 10
991.8201307220968
 20
174.3235699033547
 30
0.0
 11
970.0701307220969
 21
174.3235699033547
 31
0.0
  0
LINE
  5
731
330
6AC
100
AcDbEntity
  8
0
 62
     0
370
    -2
100
AcDbLine
 10
999.0524914263131
 20
174.3235699033547
 30
0.0
 11
994.3201307220968
 21
174.3235699033547
 31
0.0
  0
INSERT
  5
732
330
6AC
100
AcDbEntity
  8
0
 62
     0
370
    -2
100
AcDbBlockReference
  2
_Open30
 10
999.0524914263131
 20
174.3235699033547
 30
0.0
 41
2.5
 42
2.5
 43
2.5
 50
180.0
  0
INSERT
  5
733
330
6AC
100
AcDbEntity
  8
0
 62
     0
370
    -2
100
AcDbBlockReference
  2
_Open30
 10
994.3201307220968
 20
174.3235699033547
 30
0.0
 41
2.5
 42
2.5
 43
2.5
  0
MTEXT
  5
734
330
6AC
100
AcDbEntity
  8
0
 62
     4
100
AcDbMText
 10
979.6951307220968
 20
177.1985699033547
 30
0.0
 40
4.5
 41
0.0
 71
     5
 72
     1
  1
47.32
  7
高4.5
 73
     1
 44
1.0
1001
ACAD
1000
MTEXTBEGIN
1070
    73
1070
     1
1070
    44
1040
1.0
1070
    74
1070
     0
1000
MTEXTEND
  0
POINT
  5
735
330
6AC
100
AcDbEntity
  8
Defpoints
 62
     0
100
AcDbPoint
 10
999.0524914263131
 20
175.1419834108111
 30
0.0
  0
POINT
  5
736
330
6AC
100
AcDbEntity
  8
Defpoints
 62
     0
100
AcDbPoint
 10
994.3201307220968
 20
175.1419834108111
 30
0.0
  0
POINT
  5
737
330
6AC
100
AcDbEntity
  8
Defpoints
 62
     0
100
AcDbPoint
 10
994.3201307220968
 20
174.3235699033547
 30
0.0
  0
ENDBLK
  5
6AE
330
6AC
100
AcDbEntity
  8
0
100
AcDbBlockEnd
  0
BLOCK
  5
6BB
330
6BA
100
AcDbEntity
  8
0
100
AcDbBlockBegin
  2
*D19
 70
     1
 10
0.0
 20
0.0
 30
0.0
  3
*D19
  1

  0
LINE
  5
738
330
6BA
100
AcDbEntity
  8
0
 62
     0
370
    -2
100
AcDbLine
 10
1020.53012769432
 20
191.0783826674516
 30
0.0
 11
1020.53012769432
 21
188.1687512454427
 31
0.0
  0
LINE
  5
739
330
6BA
100
AcDbEntity
  8
0
 62
     0
370
    -2
100
AcDbLine
 10
1018.0729406402
 20
191.0783826674516
 30
0.0
 11
1018.0729406402
 21
188.1687512454427
 31
0.0
  0
LINE
  5
73A
330
6BA
100
AcDbEntity
  8
0
 62
     0
370
    -2
100
AcDbLine
 10
1023.03012769432
 20
189.4187512454427
 30
0.0
 11
1025.53012769432
 21
189.4187512454427
 31
0.0
  0
LINE
  5
73B
330
6BA
100
AcDbEntity
  8
0
 62
     0
370
    -2
100
AcDbLine
 10
1015.5729406402
 20
189.4187512454427
 30
0.0
 11
993.9729406402001
 21
189.4187512454427
 31
0.0
  0
LINE
  5
73C
330
6BA
100
AcDbEntity
  8
0
 62
     0
370
    -2
100
AcDbLine
 10
1020.53012769432
 20
189.4187512454427
 30
0.0
 11
1018.0729406402
 21
189.4187512454427
 31
0.0
  0
INSERT
  5
73D
330
6BA
100
AcDbEntity
  8
0
 62
     0
370
    -2
100
AcDbBlockReference
  2
_Open30
 10
1020.53012769432
 20
189.4187512454427
 30
0.0
 41
2.5
 42
2.5
 43
2.5
 50
180.0
  0
INSERT
  5
73E
330
6BA
100
AcDbEntity
  8
0
 62
     0
370
    -2
100
AcDbBlockReference
  2
_Open30
 10
1018.0729406402
 20
189.4187512454427
 30
0.0
 41
2.5
 42
2.5
 43
2.5
  0
MTEXT
  5
73F
330
6BA
100
AcDbEntity
  8
0
 62
     4
100
AcDbMText
 10
1003.5229406402
 20
193.1937512454427
 30
0.0
 40
6.299999999999998
 41
0.0
 71
     5
 72
     1
  1
0.25
  7
高6.3
 73
     1
 44
1.0
1001
ACAD
1000
MTEXTBEGIN
1070
    73
1070
     1
1070
    44
1040
1.0
1070
    74
1070
     0
1000
MTEXTEND
  0
POINT
  5
740
330
6BA
100
AcDbEntity
  8
Defpoints
 62
     0
100
AcDbPoint
 10
1020.53012769432
 20
191.3283826674516
 30
0.0
  0
POINT
  5
741
330
6BA
100
AcDbEntity
  8
Defpoints
 62
     0
100
AcDbPoint
 10
1018.0729406402
 20
191.3283826674516
 30
0.0
  0
POINT
  5
742
330
6BA
100
AcDbEntity
  8
Defpoints
 62
     0
100
AcDbPoint
 10
1018.0729406402
 20
189.4187512454427
 30
0.0
  0
ENDBLK
  5
6BC
330
6BA
100
AcDbEntity
  8
0
100
AcDbBlockEnd
  0
BLOCK
  5
6C9
330
6C8
100
AcDbEntity
  8
0
100
AcDbBlockBegin
  2
*D20
 70
     1
 10
0.0
 20
0.0
 30
0.0
  3
*D20
  1

  0
LINE
  5
743
330
6C8
100
AcDbEntity
  8
0
 62
     0
370
    -2
100
AcDbLine
 10
1022.168252600393
 20
185.6222930946892
 30
0.0
 11
1022.168252600393
 21
183.0764010252259
 31
0.0
  0
LINE
  5
744
330
6C8
100
AcDbEntity
  8
0
 62
     0
370
    -2
100
AcDbLine
 10
1019.07401680225
 20
185.6222930946892
 30
0.0
 11
1019.07401680225
 21
183.0764010252259
 31
0.0
  0
LINE
  5
745
330
6C8
100
AcDbEntity
  8
0
 62
     0
370
    -2
100
AcDbLine
 10
1024.668252600394
 20
184.3264010252259
 30
0.0
 11
1027.168252600394
 21
184.3264010252259
 31
0.0
  0
LINE
  5
746
330
6C8
100
AcDbEntity
  8
0
 62
     0
370
    -2
100
AcDbLine
 10
1016.574016802251
 20
184.3264010252259
 30
0.0
 11
1004.574016802251
 21
184.3264010252259
 31
0.0
  0
LINE
  5
747
330
6C8
100
AcDbEntity
  8
0
 62
     0
370
    -2
100
AcDbLine
 10
1022.168252600393
 20
184.3264010252259
 30
0.0
 11
1019.07401680225
 21
184.3264010252259
 31
0.0
  0
INSERT
  5
748
330
6C8
100
AcDbEntity
  8
0
 62
     0
370
    -2
100
AcDbBlockReference
  2
_Open30
 10
1022.168252600393
 20
184.3264010252259
 30
0.0
 41
2.5
 42
2.5
 43
2.5
 50
180.0
  0
INSERT
  5
749
330
6C8
100
AcDbEntity
  8
0
 62
     0
370
    -2
100
AcDbBlockReference
  2
_Open30
 10
1019.07401680225
 20
184.3264010252259
 30
0.0
 41
2.5
 42
2.5
 43
2.5
  0
MTEXT
  5
74A
330
6C8
100
AcDbEntity
  8
0
 62
     4
100
AcDbMText
 10
1009.19901680225
 20
186.4514010252259
 30
0.0
 40
3.0
 41
0.0
 71
     5
 72
     1
  1
1.55
 73
     1
 44
1.0
1001
ACAD
1000
MTEXTBEGIN
1070
    73
1070
     1
1070
    44
1040
1.0
1070
    74
1070
     0
1000
MTEXTEND
  0
POINT
  5
74B
330
6C8
100
AcDbEntity
  8
Defpoints
 62
     0
100
AcDbPoint
 10
1022.168252600393
 20
185.8722930946892
 30
0.0
  0
POINT
  5
74C
330
6C8
100
AcDbEntity
  8
Defpoints
 62
     0
100
AcDbPoint
 10
1019.07401680225
 20
185.8722930946892
 30
0.0
  0
POINT
  5
74D
330
6C8
100
AcDbEntity
  8
Defpoints
 62
     0
100
AcDbPoint
 10
1019.07401680225
 20
184.3264010252259
 30
0.0
  0
ENDBLK
  5
6CA
330
6C8
100
AcDbEntity
  8
0
100
AcDbBlockEnd
  0
BLOCK
  5
6D7
330
6D6
100
AcDbEntity
  8
0
100
AcDbBlockBegin
  2
*D21
 70
     1
 10
0.0
 20
0.0
 30
0.0
  3
*D21
  1

  0
LINE
  5
74E
330
6D6
100
AcDbEntity
  8
0
 62
     0
370
    -2
100
AcDbLine
 10
1023.897384208479
 20
180.1662033788427
 30
0.0
 11
1023.897384208479
 21
177.8931157164754
 31
0.0
  0
LINE
  5
74F
330
6D6
100
AcDbEntity
  8
0
 62
     0
370
    -2
100
AcDbLine
 10
1019.893079255287
 20
180.1662033788427
 30
0.0
 11
1019.893079255287
 21
177.8931157164754
 31
0.0
  0
LINE
  5
750
330
6D6
100
AcDbEntity
  8
0
 62
     0
370
    -2
100
AcDbLine
 10
1026.397384208479
 20
179.1431157164754
 30
0.0
 11
1028.897384208479
 21
179.1431157164754
 31
0.0
  0
LINE
  5
751
330
6D6
100
AcDbEntity
  8
0
 62
     0
370
    -2
100
AcDbLine
 10
1017.393079255287
 20
179.1431157164754
 30
0.0
 11
1009.059745921954
 21
179.1431157164754
 31
0.0
  0
LINE
  5
752
330
6D6
100
AcDbEntity
  8
0
 62
     0
370
    -2
100
AcDbLine
 10
1023.897384208479
 20
179.1431157164754
 30
0.0
 11
1019.893079255287
 21
179.1431157164754
 31
0.0
  0
INSERT
  5
753
330
6D6
100
AcDbEntity
  8
0
 62
     0
370
    -2
100
AcDbBlockReference
  2
_Open30
 10
1023.897384208479
 20
179.1431157164754
 30
0.0
 41
2.5
 42
2.5
 43
2.5
 50
180.0
  0
INSERT
  5
754
330
6D6
100
AcDbEntity
  8
0
 62
     0
370
    -2
100
AcDbBlockReference
  2
_Open30
 10
1019.893079255287
 20
179.1431157164754
 30
0.0
 41
2.5
 42
2.5
 43
2.5
  0
MTEXT
  5
755
330
6D6
100
AcDbEntity
  8
0
 62
     4
100
AcDbMText
 10
1011.518079255287
 20
180.7681157164754
 30
0.0
 40
2.0
 41
0.0
 71
     5
 72
     1
  1
0.8
  7
高2
 73
     1
 44
1.0
1001
ACAD
1000
MTEXTBEGIN
1070
    73
1070
     1
1070
    44
1040
1.0
1070
    74
1070
     0
1000
MTEXTEND
  0
POINT
  5
756
330
6D6
100
AcDbEntity
  8
Defpoints
 62
     0
100
AcDbPoint
 10
1023.897384208479
 20
180.4162033788427
 30
0.0
  0
POINT
  5
757
330
6D6
100
AcDbEntity
  8
Defpoints
 62
     0
100
AcDbPoint
 10
1019.893079255287
 20
180.4162033788427
 30
0.0
  0
POINT
  5
758
330
6D6
100
AcDbEntity
  8
Defpoints
 62
     0
100
AcDbPoint
 10
1019.893079255287
 20
179.1431157164754
 30
0.0
  0
ENDBLK
  5
6D8
330
6D6
100
AcDbEntity
  8
0
100
AcDbBlockEnd
  0
BLOCK
  5
6E5
330
6E4
100
AcDbEntity
  8
0
100
AcDbBlockBegin
  2
*D22
 70
     1
 10
0.0
 20
0.0
 30
0.0
  3
*D22
  1

  0
LINE
  5
759
330
6E4
100
AcDbEntity
  8
0
 62
     0
370
    -2
100
AcDbLine
 10
1023.806377506467
 20
174.8919834108111
 30
0.0
 11
1023.806377506467
 21
173.0735699033547
 31
0.0
  0
LINE
  5
75A
330
6E4
100
AcDbEntity
  8
0
 62
     0
370
    -2
100
AcDbLine
 10
1019.07401680225
 20
174.8919834108111
 30
0.0
 11
1019.07401680225
 21
173.0735699033547
 31
0.0
  0
LINE
  5
75B
330
6E4
100
AcDbEntity
  8
0
 62
     0
370
    -2
100
AcDbLine
 10
1026.306377506466
 20
174.3235699033547
 30
0.0
 11
1028.806377506467
 21
174.3235699033547
 31
0.0
  0
LINE
  5
75C
330
6E4
100
AcDbEntity
  8
0
 62
     0
370
    -2
100
AcDbLine
 10
1016.574016802251
 20
174.3235699033547
 30
0.0
 11
1001.824016802251
 21
174.3235699033547
 31
0.0
  0
LINE
  5
75D
330
6E4
100
AcDbEntity
  8
0
 62
     0
370
    -2
100
AcDbLine
 10
1023.806377506467
 20
174.3235699033547
 30
0.0
 11
1019.07401680225
 21
174.3235699033547
 31
0.0
  0
INSERT
  5
75E
330
6E4
100
AcDbEntity
  8
0
 62
     0
370
    -2
100
AcDbBlockReference
  2
_Open30
 10
1023.806377506467
 20
174.3235699033547
 30
0.0
 41
2.5
 42
2.5
 43
2.5
 50
180.0
  0
INSERT
  5
75F
330
6E4
100
AcDbEntity
  8
0
 62
     0
370
    -2
100
AcDbBlockReference
  2
_Open30
 10
1019.07401680225
 20
174.3235699033547
 30
0.0
 41
2.5
 42
2.5
 43
2.5
  0
MTEXT
  5
760
330
6E4
100
AcDbEntity
  8
0
 62
     4
100
AcDbMText
 10
1007.949016802251
 20
176.4485699033547
 30
0.0
 40
3.0
 41
0.0
 71
     5
 72
     1
  1
18.93
 73
     1
 44
1.0
1001
ACAD
1000
MTEXTBEGIN
1070
    73
1070
     1
1070
    44
1040
1.0
1070
    74
1070
     0
1000
MTEXTEND
  0
POINT
  5
761
330
6E4
100
AcDbEntity
  8
Defpoints
 62
     0
100
AcDbPoint
 10
1023.806377506467
 20
175.1419834108111
 30
0.0
  0
POINT
  5
762
330
6E4
100
AcDbEntity
  8
Defpoints
 62
     0
100
AcDbPoint
 10
1019.07401680225
 20
175.1419834108111
 30
0.0
  0
POINT
  5
763
330
6E4
100
AcDbEntity
  8
Defpoints
 62
     0
100
AcDbPoint
 10
1019.07401680225
 20
174.3235699033547
 30
0.0
  0
ENDBLK
  5
6E6
330
6E4
100
AcDbEntity
  8
0
100
AcDbBlockEnd
  0
BLOCK
  5
6F3
330
6F2
100
AcDbEntity
  8
0
100
AcDbBlockBegin
  2
*D23
 70
     1
 10
0.0
 20
0.0
 30
0.0
  3
*D23
  1

  0
LINE
  5
764
330
6F2
100
AcDbEntity
  8
0
 62
     0
370
    -2
100
AcDbLine
 10
1021.001950655328
 20
169.8361432042213
 30
0.0
 11
1021.001950655328
 21
167.5262221273458
 31
0.0
  0
LINE
  5
765
330
6F2
100
AcDbEntity
  8
0
 62
     0
370
    -2
100
AcDbLine
 10
1016.41327545318
 20
169.8361432042213
 30
0.0
 11
1016.41327545318
 21
167.5262221273458
 31
0.0
  0
LINE
  5
766
330
6F2
100
AcDbEntity
  8
0
 62
     0
370
    -2
100
AcDbLine
 10
1023.501950655328
 20
168.7762221273458
 30
0.0
 11
1026.001950655328
 21
168.7762221273458
 31
0.0
  0
LINE
  5
767
330
6F2
100
AcDbEntity
  8
0
 62
     0
370
    -2
100
AcDbLine
 10
1013.91327545318
 20
168.7762221273458
 30
0.0
 11
999.1632754531806
 21
168.7762221273458
 31
0.0
  0
LINE
  5
768
330
6F2
100
AcDbEntity
  8
0
 62
     0
370
    -2
100
AcDbLine
 10
1021.001950655328
 20
168.7762221273458
 30
0.0
 11
1016.41327545318
 21
168.7762221273458
 31
0.0
  0
INSERT
  5
769
330
6F2
100
AcDbEntity
  8
0
 62
     0
370
    -2
100
AcDbBlockReference
  2
_Open30
 10
1021.001950655328
 20
168.7762221273458
 30
0.0
 41
2.5
 42
2.5
 43
2.5
 50
180.0
  0
INSERT
  5
76A
330
6F2
100
AcDbEntity
  8
0
 62
     0
370
    -2
100
AcDbBlockReference
  2
_Open30
 10
1016.41327545318
 20
168.7762221273458
 30
0.0
 41
2.5
 42
2.5
 43
2.5
  0
MTEXT
  5
76B
330
6F2
100
AcDbEntity
  8
0
 62
     4
100
AcDbMText
 10
1005.28827545318
 20
170.9012221273458
 30
0.0
 40
3.0
 41
0.0
 71
     5
 72
     1
  1
13.77
 73
     1
 44
1.0
1001
ACAD
1000
MTEXTBEGIN
1070
    73
1070
     1
1070
    44
1040
1.0
1070
    74
1070
     0
1000
MTEXTEND
  0
POINT
  5
76C
330
6F2
100
AcDbEntity
  8
Defpoints
 62
     0
100
AcDbPoint
 10
1021.001950655328
 20
170.0861432042213
 30
0.0
  0
POINT
  5
76D
330
6F2
100
AcDbEntity
  8
Defpoints
 62
     0
100
AcDbPoint
 10
1016.41327545318
 20
170.0861432042213
 30
0.0
  0
POINT
  5
76E
330
6F2
100
AcDbEntity
  8
Defpoints
 62
     0
100
AcDbPoint
 10
1016.41327545318
 20
168.7762221273458
 30
0.0
  0
ENDBLK
  5
6F4
330
6F2
100
AcDbEntity
  8
0
100
AcDbBlockEnd
  0
BLOCK
  5
701
330
700
100
AcDbEntity
  8
0
100
AcDbBlockBegin
  2
*D24
 70
     1
 10
0.0
 20
0.0
 30
0.0
  3
*D24
  1

  0
LINE
  5
76F
330
700
100
AcDbEntity
  8
0
 62
     0
370
    -2
100
AcDbLine
 10
1013.905667822178
 20
200.7656345224957
 30
0.0
 11
1013.905667822178
 21
208.1621680004334
 31
0.0
  0
LINE
  5
770
330
700
100
AcDbEntity
  8
0
 62
     0
370
    -2
100
AcDbLine
 10
1003.967193452688
 20
200.7656345224957
 30
0.0
 11
1003.967193452688
 21
208.1621680004334
 31
0.0
  0
LINE
  5
771
330
700
100
AcDbEntity
  8
0
 62
     0
370
    -2
100
AcDbLine
 10
1011.405667822178
 20
206.9121680004335
 30
0.0
 11
1006.467193452688
 21
206.9121680004335
 31
0.0
  0
INSERT
  5
772
330
700
100
AcDbEntity
  8
0
 62
     0
370
    -2
100
AcDbBlockReference
  2
_Open30
 10
1013.905667822178
 20
206.9121680004335
 30
0.0
 41
2.5
 42
2.5
 43
2.5
  0
INSERT
  5
773
330
700
100
AcDbEntity
  8
0
 62
     0
370
    -2
100
AcDbBlockReference
  2
_Open30
 10
1003.967193452688
 20
206.9121680004335
 30
0.0
 41
2.5
 42
2.5
 43
2.5
 50
180.0
  0
MTEXT
  5
774
330
700
100
AcDbEntity
  8
0
 62
     4
100
AcDbMText
 10
1008.936430637433
 20
209.9871680004334
 30
0.0
 40
3.0
 41
0.0
 71
     5
 72
     1
  1
9.94\H0.7X;\S+0^ -0.02;
 73
     1
 44
1.0
1001
ACAD
1000
MTEXTBEGIN
1070
    73
1070
     1
1070
    44
1040
1.0
1070
    74
1070
     0
1000
MTEXTEND
  0
POINT
  5
775
330
700
100
AcDbEntity
  8
Defpoints
 62
     0
100
AcDbPoint
 10
1013.905667822178
 20
200.5156345224957
 30
0.0
  0
POINT
  5
776
330
700
100
AcDbEntity
  8
Defpoints
 62
     0
100
AcDbPoint
 10
1003.967193452688
 20
200.5156345224957
 30
0.0
  0
POINT
  5
777
330
700
100
AcDbEntity
  8
Defpoints
 62
     0
100
AcDbPoint
 10
1003.967193452688
 20
206.9121680004335
 30
0.0
  0
ENDBLK
  5
702
330
700
100
AcDbEntity
  8
0
100
AcDbBlockEnd
  0
ENDSEC
  0
SECTION
  2
ENTITIES
  0
LINE
  5
BB
330
6B
100
AcDbEntity
  8
0
 62
     3
100
AcDbLine
 10
464.755929
 20
100.676699
 30
0.0
 11
464.755929
 21
102.676699
 31
0.0
  0
LINE
  5
BC
330
6B
100
AcDbEntity
  8
0
 62
     3
100
AcDbLine
 10
448.055929
 20
100.676699
 30
0.0
 11
446.455929
 21
100.676699
 31
0.0
  0
LINE
  5
BD
330
6B
100
AcDbEntity
  8
0
 62
     3
100
AcDbLine
 10
453.655929
 20
115.076699
 30
0.0
 11
448.355929
 21
115.076699
 31
0.0
  0
LINE
  5
BE
330
6B
100
AcDbEntity
  8
0
 62
     3
100
AcDbLine
 10
453.655929
 20
118.076699
 30
0.0
 11
448.355929
 21
118.076699
 31
0.0
  0
LINE
  5
BF
330
6B
100
AcDbEntity
  8
0
 62
     3
100
AcDbLine
 10
464.755929
 20
102.676699
 30
0.0
 11
455.8559289999998
 21
102.676699
 31
0.0
  0
LINE
  5
C0
330
6B
100
AcDbEntity
  8
0
 62
     3
100
AcDbLine
 10
455.8559289999998
 20
118.076699
 30
0.0
 11
455.8559289999998
 21
102.676699
 31
0.0
  0
LINE
  5
C1
330
6B
100
AcDbEntity
  8
0
 62
     3
100
AcDbLine
 10
453.655929
 20
115.076699
 30
0.0
 11
453.655929
 21
100.676699
 31
0.0
  0
LINE
  5
C2
330
6B
100
AcDbEntity
  8
0
 62
     3
100
AcDbLine
 10
439.955929
 20
100.676699
 30
0.0
 11
439.9455119999998
 21
101.176699
 31
0.0
  0
LINE
  5
C3
330
6B
100
AcDbEntity
  8
0
 62
     3
100
AcDbLine
 10
441.855929
 20
115.076699
 30
0.0
 11
441.555929
 21
100.676699
 31
0.0
  0
LINE
  5
C4
330
6B
100
AcDbEntity
  8
0
 62
     3
100
AcDbLine
 10
446.155929
 20
115.076699
 30
0.0
 11
446.455929
 21
100.676699
 31
0.0
  0
LINE
  5
C5
330
6B
100
AcDbEntity
  8
0
 62
     3
100
AcDbLine
 10
448.355929
 20
115.076699
 30
0.0
 11
448.055929
 21
100.676699
 31
0.0
  0
LINE
  5
C6
330
6B
100
AcDbEntity
  8
0
 62
     3
100
AcDbLine
 10
455.5735719999998
 20
130.876894
 30
0.0
 11
455.8559289999998
 21
118.076699
 31
0.0
  0
LINE
  5
C7
330
6B
100
AcDbEntity
  8
0
 62
     3
100
AcDbLine
 10
453.938286
 20
130.876894
 30
0.0
 11
453.655929
 21
118.076699
 31
0.0
  0
LINE
  5
C8
330
6B
100
AcDbEntity
  8
0
 62
     3
100
AcDbLine
 10
448.0735719999998
 20
130.876894
 30
0.0
 11
448.355929
 21
118.076699
 31
0.0
  0
LINE
  5
C9
330
6B
100
AcDbEntity
  8
0
 62
     3
100
AcDbLine
 10
446.438286
 20
130.876894
 30
0.0
 11
446.155929
 21
118.076699
 31
0.0
  0
LINE
  5
CA
330
6B
100
AcDbEntity
  8
0
 62
     3
100
AcDbLine
 10
441.5735719999998
 20
130.876894
 30
0.0
 11
441.855929
 21
118.076699
 31
0.0
  0
LINE
  5
CB
330
6B
100
AcDbEntity
  8
0
 62
     3
100
AcDbLine
 10
439.9382860000002
 20
130.876894
 30
0.0
 11
439.666458
 21
118.554034
 31
0.0
  0
ARC
  5
CC
330
6B
100
AcDbEntity
  8
0
 62
     3
100
AcDbCircle
 10
454.7559289999998
 20
130.858858
 30
0.0
 40
0.8178419999999999
100
AcDbArc
 50
1.263673
 51
178.736327
  0
ARC
  5
CD
330
6B
100
AcDbEntity
  8
0
 62
     3
100
AcDbCircle
 10
447.2559289999998
 20
130.858858
 30
0.0
 40
0.8178419999999999
100
AcDbArc
 50
1.263673
 51
178.736327
  0
ARC
  5
CE
330
6B
100
AcDbEntity
  8
0
 62
     3
100
AcDbCircle
 10
440.755929
 20
130.858858
 30
0.0
 40
0.8178419999999999
100
AcDbArc
 50
1.263673
 51
178.736327
  0
LINE
  5
CF
330
6B
100
AcDbEntity
  8
0
 62
     3
100
AcDbLine
 10
453.655929
 20
100.676699
 30
0.0
 11
464.755929
 21
100.676699
 31
0.0
  0
LINE
  5
D0
330
6B
100
AcDbEntity
  8
0
 62
     3
100
AcDbLine
 10
441.555929
 20
100.676699
 30
0.0
 11
439.955929
 21
100.676699
 31
0.0
  0
LINE
  5
D1
330
6B
100
AcDbEntity
  8
0
 62
     3
100
AcDbLine
 10
446.155929
 20
115.076699
 30
0.0
 11
441.855929
 21
115.076699
 31
0.0
  0
LINE
  5
D2
330
6B
100
AcDbEntity
  8
0
 62
     3
100
AcDbLine
 10
446.155929
 20
118.076699
 30
0.0
 11
441.855929
 21
118.076699
 31
0.0
  0
LINE
  5
D3
330
6B
100
AcDbEntity
  8
0
 62
     3
100
AcDbLine
 10
439.9455119999998
 20
101.176699
 30
0.0
 11
409.5663459999998
 21
101.176699
 31
0.0
  0
LINE
  5
D4
330
6B
100
AcDbEntity
  8
0
 62
     3
100
AcDbLine
 10
439.6559289999998
 20
118.576699
 30
0.0
 11
409.8448989999998
 21
118.576699
 31
0.0
  0
LINE
  5
D5
330
6B
100
AcDbEntity
  8
0
 62
     3
100
AcDbLine
 10
439.9455119999998
 20
101.176699
 30
0.0
 11
439.9455119999998
 21
117.953353
 31
0.0
  0
LINE
  5
D6
330
6B
100
AcDbEntity
  8
0
 62
     3
100
AcDbLine
 10
439.6559289999998
 20
118.576699
 30
0.0
 11
439.9455119999998
 21
117.953353
 31
0.0
  0
LINE
  5
D7
330
6B
100
AcDbEntity
  8
0
 62
     3
100
AcDbLine
 10
395.855929
 20
115.076699
 30
0.0
 11
395.855929
 21
100.676699
 31
0.0
  0
LINE
  5
D8
330
6B
100
AcDbEntity
  8
0
 62
     3
100
AcDbLine
 10
393.655929
 20
118.076699
 30
0.0
 11
393.655929
 21
102.676699
 31
0.0
  0
LINE
  5
D9
330
6B
100
AcDbEntity
  8
0
 62
     3
100
AcDbLine
 10
384.755929
 20
100.676699
 30
0.0
 11
384.755929
 21
102.676699
 31
0.0
  0
LINE
  5
DA
330
6B
100
AcDbEntity
  8
0
 62
     3
100
AcDbLine
 10
401.455929
 20
100.676699
 30
0.0
 11
403.055929
 21
100.676699
 31
0.0
  0
LINE
  5
DB
330
6B
100
AcDbEntity
  8
0
 62
     3
100
AcDbLine
 10
407.955929
 20
100.676699
 30
0.0
 11
409.5559289999997
 21
100.676699
 31
0.0
  0
LINE
  5
DC
330
6B
100
AcDbEntity
  8
0
 62
     3
100
AcDbLine
 10
395.855929
 20
100.676699
 30
0.0
 11
384.755929
 21
100.676699
 31
0.0
  0
LINE
  5
DD
330
6B
100
AcDbEntity
  8
0
 62
     3
100
AcDbLine
 10
384.755929
 20
102.676699
 30
0.0
 11
393.655929
 21
102.676699
 31
0.0
  0
LINE
  5
DE
330
6B
100
AcDbEntity
  8
0
 62
     3
100
AcDbLine
 10
395.855929
 20
115.076699
 30
0.0
 11
401.155929
 21
115.076699
 31
0.0
  0
LINE
  5
DF
330
6B
100
AcDbEntity
  8
0
 62
     3
100
AcDbLine
 10
403.355929
 20
115.076699
 30
0.0
 11
407.655929
 21
115.076699
 31
0.0
  0
LINE
  5
E0
330
6B
100
AcDbEntity
  8
0
 62
     3
100
AcDbLine
 10
395.855929
 20
118.076699
 30
0.0
 11
401.155929
 21
118.076699
 31
0.0
  0
LINE
  5
E1
330
6B
100
AcDbEntity
  8
0
 62
     3
100
AcDbLine
 10
403.355929
 20
118.076699
 30
0.0
 11
407.655929
 21
118.076699
 31
0.0
  0
LINE
  5
E2
330
6B
100
AcDbEntity
  8
0
 62
     3
100
AcDbLine
 10
409.5559289999997
 20
100.676699
 30
0.0
 11
409.5663459999998
 21
101.176699
 31
0.0
  0
LINE
  5
E3
330
6B
100
AcDbEntity
  8
0
 62
     3
100
AcDbLine
 10
407.655929
 20
115.076699
 30
0.0
 11
407.955929
 21
100.676699
 31
0.0
  0
LINE
  5
E4
330
6B
100
AcDbEntity
  8
0
 62
     3
100
AcDbLine
 10
403.355929
 20
115.076699
 30
0.0
 11
403.055929
 21
100.676699
 31
0.0
  0
LINE
  5
E5
330
6B
100
AcDbEntity
  8
0
 62
     3
100
AcDbLine
 10
401.155929
 20
115.076699
 30
0.0
 11
401.455929
 21
100.676699
 31
0.0
  0
LINE
  5
E6
330
6B
100
AcDbEntity
  8
0
 62
     3
100
AcDbLine
 10
393.938286
 20
130.876894
 30
0.0
 11
393.655929
 21
118.076699
 31
0.0
  0
LINE
  5
E7
330
6B
100
AcDbEntity
  8
0
 62
     3
100
AcDbLine
 10
395.573572
 20
130.876894
 30
0.0
 11
395.855929
 21
118.076699
 31
0.0
  0
LINE
  5
E8
330
6B
100
AcDbEntity
  8
0
 62
     3
100
AcDbLine
 10
401.438286
 20
130.876894
 30
0.0
 11
401.155929
 21
118.076699
 31
0.0
  0
LINE
  5
E9
330
6B
100
AcDbEntity
  8
0
 62
     3
100
AcDbLine
 10
403.073572
 20
130.876894
 30
0.0
 11
403.355929
 21
118.076699
 31
0.0
  0
LINE
  5
EA
330
6B
100
AcDbEntity
  8
0
 62
     3
100
AcDbLine
 10
407.9382859999998
 20
130.876894
 30
0.0
 11
407.655929
 21
118.076699
 31
0.0
  0
LINE
  5
EB
330
6B
100
AcDbEntity
  8
0
 62
     3
100
AcDbLine
 10
409.573572
 20
130.876894
 30
0.0
 11
409.845399
 21
118.554034
 31
0.0
  0
ARC
  5
EC
330
6B
100
AcDbEntity
  8
0
 62
     3
100
AcDbCircle
 10
394.755929
 20
130.858858
 30
0.0
 40
0.8178419999999999
100
AcDbArc
 50
1.263673
 51
178.736327
  0
ARC
  5
ED
330
6B
100
AcDbEntity
  8
0
 62
     3
100
AcDbCircle
 10
402.255929
 20
130.858858
 30
0.0
 40
0.8178419999999999
100
AcDbArc
 50
1.263673
 51
178.736327
  0
ARC
  5
EE
330
6B
100
AcDbEntity
  8
0
 62
     3
100
AcDbCircle
 10
408.7559289999998
 20
130.858858
 30
0.0
 40
0.8178419999999999
100
AcDbArc
 50
1.263673
 51
178.736327
  0
LINE
  5
EF
330
6B
100
AcDbEntity
  8
0
 62
     3
100
AcDbLine
 10
409.5663459999998
 20
101.176699
 30
0.0
 11
409.5663459999998
 21
117.953353
 31
0.0
  0
LINE
  5
F0
330
6B
100
AcDbEntity
  8
0
 62
     3
100
AcDbLine
 10
409.8559289999998
 20
118.576699
 30
0.0
 11
409.5663459999998
 21
117.953353
 31
0.0
  0
LINE
  5
F1
330
6B
100
AcDbEntity
  8
0
 62
     3
100
AcDbLine
 10
494.996249
 20
100.676699
 30
0.0
 11
574.996249
 21
100.676699
 31
0.0
  0
LINE
  5
F2
330
6B
100
AcDbEntity
  8
0
 62
     3
100
AcDbLine
 10
494.996249
 20
131.676699
 30
0.0
 11
574.996249
 21
131.676699
 31
0.0
  0
LINE
  5
F3
330
6B
100
AcDbEntity
  8
0
 62
     3
100
AcDbLine
 10
494.996249
 20
100.676699
 30
0.0
 11
494.996249
 21
131.676699
 31
0.0
  0
LINE
  5
F4
330
6B
100
AcDbEntity
  8
0
 62
     3
100
AcDbLine
 10
574.996249
 20
100.676699
 30
0.0
 11
574.996249
 21
131.676699
 31
0.0
  0
LINE
  5
F5
330
6B
100
AcDbEntity
  8
0
 62
     3
100
AcDbLine
 10
494.996249
 20
102.676699
 30
0.0
 11
574.996249
 21
102.676699
 31
0.0
  0
LINE
  5
F6
330
6B
100
AcDbEntity
  8
0
 62
     3
100
AcDbLine
 10
577.996249
 20
105.065026
 30
0.0
 11
577.996249
 21
114.065026
 31
0.0
  0
ARC
  5
F7
330
6B
100
AcDbEntity
  8
0
 62
     3
100
AcDbCircle
 10
574.996249
 20
114.065026
 30
0.0
 40
3.0
100
AcDbArc
 50
0.0
 51
90.0
  0
ARC
  5
F8
330
6B
100
AcDbEntity
  8
0
 62
     3
100
AcDbCircle
 10
574.996249
 20
105.065026
 30
0.0
 40
3.0
100
AcDbArc
 50
270.0
 51
0.0
  0
LINE
  5
F9
330
6B
100
AcDbEntity
  8
0
 62
     3
100
AcDbLine
 10
577.996249
 20
65.7093
 30
0.0
 11
577.996249
 21
69.7093
 31
0.0
  0
LINE
  5
FA
330
6B
100
AcDbEntity
  8
0
 62
     3
100
AcDbLine
 10
552.996249
 20
61.7093
 30
0.0
 11
552.996249
 21
73.7093
 31
0.0
  0
LINE
  5
FB
330
6B
100
AcDbEntity
  8
0
 62
     3
100
AcDbLine
 10
541.996249
 20
71.7093
 30
0.0
 11
544.996249
 21
71.7093
 31
0.0
  0
LINE
  5
FC
330
6B
100
AcDbEntity
  8
0
 62
     3
100
AcDbLine
 10
541.996249
 20
63.7093
 30
0.0
 11
544.996249
 21
63.7093
 31
0.0
  0
LINE
  5
FD
330
6B
100
AcDbEntity
  8
0
 62
     3
100
AcDbLine
 10
577.996249
 20
69.7093
 30
0.0
 11
552.996249
 21
70.7093
 31
0.0
  0
LINE
  5
FE
330
6B
100
AcDbEntity
  8
0
 62
     3
100
AcDbLine
 10
577.996249
 20
65.7093
 30
0.0
 11
552.996249
 21
64.7093
 31
0.0
  0
LINE
  5
FF
330
6B
100
AcDbEntity
  8
0
 62
     3
100
AcDbLine
 10
544.996249
 20
61.7093
 30
0.0
 11
544.996249
 21
73.7093
 31
0.0
  0
LINE
  5
100
330
6B
100
AcDbEntity
  8
0
 62
     3
100
AcDbLine
 10
544.996249
 20
73.7093
 30
0.0
 11
552.996249
 21
73.7093
 31
0.0
  0
LINE
  5
101
330
6B
100
AcDbEntity
  8
0
 62
     3
100
AcDbLine
 10
544.996249
 20
61.7093
 30
0.0
 11
552.996249
 21
61.7093
 31
0.0
  0
LINE
  5
102
330
6B
100
AcDbEntity
  8
0
 62
     3
100
AcDbLine
 10
541.996249
 20
63.7093
 30
0.0
 11
541.996249
 21
71.7093
 31
0.0
  0
LINE
  5
103
330
6B
100
AcDbEntity
  8
0
 62
     3
100
AcDbLine
 10
529.996249
 20
65.7093
 30
0.0
 11
529.996249
 21
69.7093
 31
0.0
  0
LINE
  5
104
330
6B
100
AcDbEntity
  8
0
 62
     3
100
AcDbLine
 10
529.996249
 20
69.7093
 30
0.0
 11
541.996249
 21
70.7093
 31
0.0
  0
LINE
  5
105
330
6B
100
AcDbEntity
  8
0
 62
     3
100
AcDbLine
 10
529.996249
 20
65.7093
 30
0.0
 11
541.996249
 21
64.7093
 31
0.0
  0
LINE
  5
106
330
6B
100
AcDbEntity
  8
0
100
AcDbLine
 10
428.255929
 20
118.576699
 30
0.0
 11
428.255929
 21
119.576699
 31
0.0
  0
LINE
  5
107
330
6B
100
AcDbEntity
  8
0
100
AcDbLine
 10
421.2559289999998
 20
118.576699
 30
0.0
 11
421.2559289999998
 21
119.576699
 31
0.0
  0
LINE
  5
108
330
6B
100
AcDbEntity
  8
0
100
AcDbLine
 10
428.255929
 20
119.576699
 30
0.0
 11
421.2559289999998
 21
119.576699
 31
0.0
  0
LINE
  5
109
330
6B
100
AcDbEntity
  8
0
100
AcDbLine
 10
577.996249
 20
110.565026
 30
0.0
 11
599.3006019999998
 21
110.565026
 31
0.0
  0
LINE
  5
10A
330
6B
100
AcDbEntity
  8
0
100
AcDbLine
 10
577.996249
 20
108.565026
 30
0.0
 11
599.3006019999998
 21
108.565026
 31
0.0
  0
LINE
  5
10B
330
6B
100
AcDbEntity
  8
0
100
AcDbLine
 10
577.996249
 20
111.065026
 30
0.0
 11
599.3006019999998
 21
111.065026
 31
0.0
  0
LINE
  5
10C
330
6B
100
AcDbEntity
  8
0
100
AcDbLine
 10
577.996249
 20
108.065026
 30
0.0
 11
599.3006019999998
 21
108.065026
 31
0.0
  0
LINE
  5
10D
330
6B
100
AcDbEntity
  8
0
100
AcDbLine
 10
577.996249
 20
113.065026
 30
0.0
 11
599.3006019999998
 21
113.065026
 31
0.0
  0
LINE
  5
10E
330
6B
100
AcDbEntity
  8
0
100
AcDbLine
 10
577.996249
 20
106.065026
 30
0.0
 11
599.3006019999998
 21
106.065026
 31
0.0
  0
LINE
  5
10F
330
6B
100
AcDbEntity
  8
0
100
AcDbLine
 10
502.336472
 20
79.01775699999998
 30
0.0
 11
520.121687
 21
79.01775699999998
 31
0.0
  0
LINE
  5
110
330
6B
100
AcDbEntity
  8
0
100
AcDbLine
 10
577.996249
 20
68.7093
 30
0.0
 11
599.3006019999998
 21
68.7093
 31
0.0
  0
LINE
  5
111
330
6B
100
AcDbEntity
  8
0
100
AcDbLine
 10
577.996249
 20
66.7093
 30
0.0
 11
599.3006019999998
 21
66.7093
 31
0.0
  0
LINE
  5
112
330
6B
100
AcDbEntity
  8
0
100
AcDbLine
 10
502.336472
 20
81.01775699999997
 30
0.0
 11
519.7045189999998
 21
81.01775699999997
 31
0.0
  0
LINE
  5
113
330
6B
100
AcDbEntity
  8
0
100
AcDbLine
 10
573.147844
 20
81.51775699999998
 30
0.0
 11
599.3006019999998
 21
81.51775699999998
 31
0.0
  0
LINE
  5
114
330
6B
100
AcDbEntity
  8
0
100
AcDbLine
 10
573.147844
 20
83.51775699999997
 30
0.0
 11
599.3006019999998
 21
83.51775699999997
 31
0.0
  0
ARC
  5
115
330
6B
100
AcDbEntity
  8
0
100
AcDbCircle
 10
597.59365
 20
89.887163
 30
0.0
 40
23.240633
100
AcDbArc
 50
274.211989
 51
85.78801099999997
  0
ARC
  5
116
330
6B
100
AcDbEntity
  8
0
100
AcDbCircle
 10
597.2998119999998
 20
89.887163
 30
0.0
 40
21.272166
100
AcDbArc
 50
275.39703
 51
84.60297
  0
ARC
  5
117
330
6B
100
AcDbEntity
  8
0
100
AcDbCircle
 10
599.3006019999998
 20
94.791392
 30
0.0
 40
15.773635
100
AcDbArc
 50
270.0
 51
90.0
  0
ARC
  5
118
330
6B
100
AcDbEntity
  8
0
100
AcDbCircle
 10
599.3006019999998
 20
94.791392
 30
0.0
 40
13.773635
100
AcDbArc
 50
270.0
 51
90.0
  0
ARC
  5
119
330
6B
100
AcDbEntity
  8
0
100
AcDbCircle
 10
599.3006019999998
 20
94.791392
 30
0.0
 40
13.273635
100
AcDbArc
 50
270.0
 51
90.0
  0
ARC
  5
11A
330
6B
100
AcDbEntity
  8
0
100
AcDbCircle
 10
599.3006019999998
 20
94.791392
 30
0.0
 40
11.273635
100
AcDbArc
 50
270.0
 51
90.0
  0
LINE
  5
11B
330
6B
100
AcDbEntity
  8
0
100
AcDbLine
 10
502.336472
 20
68.7093
 30
0.0
 11
519.8194539999998
 21
68.7093
 31
0.0
  0
LINE
  5
11C
330
6B
100
AcDbEntity
  8
0
100
AcDbLine
 10
502.336472
 20
66.7093
 30
0.0
 11
519.940302
 21
66.7093
 31
0.0
  0
LINE
  5
11D
330
6B
100
AcDbEntity
  8
0
100
AcDbLine
 10
502.336472
 20
68.7093
 30
0.0
 11
502.336472
 21
66.7093
 31
0.0
  0
LINE
  5
11E
330
6B
100
AcDbEntity
  8
0
100
AcDbLine
 10
502.336472
 20
81.01775699999997
 30
0.0
 11
502.336472
 21
79.01775699999998
 31
0.0
  0
LINE
  5
11F
330
6B
100
AcDbEntity
  8
0
100
AcDbLine
 10
502.336472
 20
87.016375
 30
0.0
 11
520.267812
 21
87.016375
 31
0.0
  0
LINE
  5
120
330
6B
100
AcDbEntity
  8
0
100
AcDbLine
 10
502.336472
 20
89.01637499999997
 30
0.0
 11
519.632204
 21
89.01637499999997
 31
0.0
  0
LINE
  5
121
330
6B
100
AcDbEntity
  8
0
100
AcDbLine
 10
555.432986
 20
87.59104800000001
 30
0.0
 11
564.2940809999998
 21
84.85400099999997
 31
0.0
  0
LINE
  5
122
330
6B
100
AcDbEntity
  8
0
100
AcDbLine
 10
554.8427349999998
 20
85.68013099999998
 30
0.0
 11
563.7038299999998
 21
82.943084
 31
0.0
  0
ARC
  5
123
330
6B
100
AcDbEntity
  8
0
100
AcDbCircle
 10
573.147844
 20
113.517757
 30
0.0
 40
30.0
100
AcDbArc
 50
252.834941
 51
270.0
  0
ARC
  5
124
330
6B
100
AcDbEntity
  8
0
100
AcDbCircle
 10
545.9889730000001
 20
57.016375
 30
0.0
 40
30.0
100
AcDbArc
 50
72.834941
 51
90.0
  0
ARC
  5
125
330
6B
100
AcDbEntity
  8
0
100
AcDbCircle
 10
573.147844
 20
113.517757
 30
0.0
 40
32.0
100
AcDbArc
 50
252.834941
 51
270.0
  0
ARC
  5
126
330
6B
100
AcDbEntity
  8
0
100
AcDbCircle
 10
545.9889730000001
 20
57.016375
 30
0.0
 40
32.0
100
AcDbArc
 50
72.834941
 51
90.0
  0
LINE
  5
127
330
6B
100
AcDbEntity
  8
0
100
AcDbLine
 10
502.336472
 20
89.01637499999997
 30
0.0
 11
502.336472
 21
87.016375
 31
0.0
  0
LINE
  5
128
330
6B
100
AcDbEntity
  8
0
100
AcDbLine
 10
502.336472
 20
87.51637499999999
 30
0.0
 11
493.159673
 21
87.51637499999999
 31
0.0
  0
LINE
  5
129
330
6B
100
AcDbEntity
  8
0
100
AcDbLine
 10
502.336472
 20
88.516375
 30
0.0
 11
493.159673
 21
88.516375
 31
0.0
  0
LINE
  5
12A
330
6B
100
AcDbEntity
  8
0
100
AcDbLine
 10
502.336472
 20
80.51775699999998
 30
0.0
 11
493.3340669999998
 21
80.51775699999998
 31
0.0
  0
LINE
  5
12B
330
6B
100
AcDbEntity
  8
0
100
AcDbLine
 10
502.336472
 20
79.51775699999998
 30
0.0
 11
493.3340669999998
 21
79.51775699999998
 31
0.0
  0
LINE
  5
12C
330
6B
100
AcDbEntity
  8
0
100
AcDbLine
 10
502.336472
 20
67.2093
 30
0.0
 11
493.3340669999998
 21
67.2093
 31
0.0
  0
LINE
  5
12D
330
6B
100
AcDbEntity
  8
0
100
AcDbLine
 10
502.336472
 20
68.2093
 30
0.0
 11
493.3340669999998
 21
68.2093
 31
0.0
  0
LINE
  5
12E
330
6B
100
AcDbEntity
  8
0
100
AcDbLine
 10
493.159673
 20
88.516375
 30
0.0
 11
493.159673
 21
87.51637499999999
 31
0.0
  0
LINE
  5
12F
330
6B
100
AcDbEntity
  8
0
100
AcDbLine
 10
493.3340669999998
 20
80.51775699999998
 30
0.0
 11
493.3340669999998
 21
79.51775699999998
 31
0.0
  0
LINE
  5
130
330
6B
100
AcDbEntity
  8
0
100
AcDbLine
 10
493.3340669999998
 20
68.2093
 30
0.0
 11
493.3340669999998
 21
67.2093
 31
0.0
  0
LINE
  5
167
330
6B
100
AcDbEntity
  8
0
100
AcDbLine
 10
521.8261909999998
 20
68.7093
 30
0.0
 11
529.996249
 21
68.7093
 31
0.0
  0
LINE
  5
168
330
6B
100
AcDbEntity
  8
0
100
AcDbLine
 10
521.94704
 20
66.7093
 30
0.0
 11
529.996249
 21
66.7093
 31
0.0
  0
LINE
  5
169
330
6B
100
AcDbEntity
  8
0
100
AcDbLine
 10
521.711257
 20
81.01775699999997
 30
0.0
 11
599.3006019999998
 21
81.01775699999997
 31
0.0
  0
LINE
  5
16A
330
6B
100
AcDbEntity
  8
0
100
AcDbLine
 10
522.128424
 20
79.01775699999998
 30
0.0
 11
599.3006019999998
 21
79.01775699999998
 31
0.0
  0
LINE
  5
16B
330
6B
100
AcDbEntity
  8
0
100
AcDbLine
 10
521.638942
 20
89.01637499999997
 30
0.0
 11
545.9889730000001
 21
89.01637499999997
 31
0.0
  0
LINE
  5
16C
330
6B
100
AcDbEntity
  8
0
100
AcDbLine
 10
522.274549
 20
87.016375
 30
0.0
 11
545.9889730000001
 21
87.016375
 31
0.0
  0
TEXT
  5
16D
330
6B
100
AcDbEntity
  8
0
 62
     3
100
AcDbText
 10
621.596078
 20
-68.96002
 30
0.0
 40
3.2
  1
FREE
  7
高3.2
100
AcDbText
  0
LINE
  5
16E
330
6B
100
AcDbEntity
  8
0
100
AcDbLine
 10
408.5408779999998
 20
27.28047
 30
0.0
 11
445.6182701364634
 21
27.28047
 31
0.0
  0
LINE
  5
16F
330
6B
100
AcDbEntity
  8
0
 62
     3
100
AcDbLine
 10
687.594929
 20
-33.856484
 30
0.0
 11
635.995565
 21
-33.856484
 31
0.0
  0
TEXT
  5
170
330
6B
100
AcDbEntity
  8
0
 62
     3
100
AcDbText
 10
641.0873775177406
 20
-39.300399
 30
0.0
 40
4.5
  1
コード
  7
高4.5
100
AcDbText
  0
LINE
  5
171
330
6B
100
AcDbEntity
  8
0
 62
     3
100
AcDbLine
 10
661.995565
 20
-39.856484
 30
0.0
 11
661.995565
 21
-33.856484
 31
0.0
  0
LINE
  5
172
330
6B
100
AcDbEntity
  8
0
 62
     3
100
AcDbLine
 10
635.995565
 20
-39.856484
 30
0.0
 11
635.995565
 21
-33.856484
 31
0.0
  0
LINE
  5
175
330
6B
100
AcDbEntity
  8
0
 62
     3
100
AcDbLine
 10
661.995602
 20
-62.919628
 30
0.0
 11
661.995602
 21
-39.91962800000001
 31
0.0
  0
LINE
  5
177
330
6B
100
AcDbEntity
  8
0
 62
     3
100
AcDbLine
 10
608.941992
 20
-69.919628
 30
0.0
 11
608.941992
 21
-55.91962800000001
 31
0.0
  0
TEXT
  5
179
330
6B
100
AcDbEntity
  8
0
 62
     3
100
AcDbText
 10
638.00592
 20
-43.714512
 30
0.0
 40
2.0
  1
A
 41
0.7
100
AcDbText
  0
TEXT
  5
17A
330
6B
100
AcDbEntity
  8
0
 62
     3
100
AcDbText
 10
640.5412059999998
 20
-43.714512
 30
0.0
 40
2.0
  1
P
 41
0.7
100
AcDbText
  0
TEXT
  5
17B
330
6B
100
AcDbEntity
  8
0
 62
     3
100
AcDbText
 10
643.076492
 20
-43.714512
 30
0.0
 40
2.0
  1
P
 41
0.7
100
AcDbText
  0
TEXT
  5
17C
330
6B
100
AcDbEntity
  8
0
 62
     3
100
AcDbText
 10
645.611778
 20
-43.714512
 30
0.0
 40
2.0
  1
D
 41
0.7
100
AcDbText
  0
TEXT
  5
17D
330
6B
100
AcDbEntity
  8
0
 62
     3
100
AcDbText
 10
650.9804609999998
 20
-43.714512
 30
0.0
 40
2.0
  1
C
 41
0.7
100
AcDbText
  0
TEXT
  5
17E
330
6B
100
AcDbEntity
  8
0
 62
     3
100
AcDbText
 10
653.515748
 20
-43.714512
 30
0.0
 40
2.0
  1
H
 41
0.7
100
AcDbText
  0
TEXT
  5
17F
330
6B
100
AcDbEntity
  8
0
 62
     3
100
AcDbText
 10
656.0510339999998
 20
-43.714512
 30
0.0
 40
2.0
  1
C
 41
0.7
100
AcDbText
  0
TEXT
  5
180
330
6B
100
AcDbEntity
  8
0
 62
     3
100
AcDbText
 10
658.58632
 20
-43.714512
 30
0.0
 40
2.0
  1
K
 41
0.7
100
AcDbText
  0
TEXT
  5
181
330
6B
100
AcDbEntity
  8
0
 62
     3
100
AcDbText
 10
664.2602870000001
 20
-43.714512
 30
0.0
 40
2.0
  1
DESN
 41
1.216762999999998
100
AcDbText
  0
TEXT
  5
182
330
6B
100
AcDbEntity
  8
0
 62
     3
100
AcDbText
 10
579.2539279999998
 20
-73.06100999999998
 30
0.0
 40
2.0
  1
NICHIDO IND.CO.LTD
 41
1.274876
100
AcDbText
  0
LINE
  5
183
330
6B
100
AcDbEntity
  8
0
 62
     3
100
AcDbLine
 10
589.636957
 20
-39.91962800000001
 30
0.0
 11
589.636957
 21
-62.919628
 31
0.0
  0
LINE
  5
184
330
6B
100
AcDbEntity
  8
0
 62
     3
100
AcDbLine
 10
635.9956019999998
 20
-39.91962800000002
 30
0.0
 11
635.9956019999998
 21
-79.585351
 31
0.0
  0
LINE
  5
189
330
6B
100
AcDbEntity
  8
0
 62
     3
100
AcDbLine
 10
648.995602
 20
-39.91962800000001
 30
0.0
 11
648.995602
 21
-69.919628
 31
0.0
  0
TEXT
  5
18A
330
6B
100
AcDbEntity
  8
0
 62
     3
100
AcDbText
 10
637.1080459999998
 20
-69.05494200000001
 30
0.0
 40
3.2
  1
作成日
 41
1.017225999999998
100
AcDbText
  0
LINE
  5
18B
330
6B
100
AcDbEntity
  8
0
 62
     3
100
AcDbLine
 10
687.694965
 20
-39.91962800000001
 30
0.0
 11
576.391523
 21
-39.91962800000001
 31
0.0
  0
LINE
  5
18C
330
6B
100
AcDbEntity
  8
0
 62
     3
100
AcDbLine
 10
674.9956019999999
 20
-62.919628
 30
0.0
 11
674.9956019999999
 21
-39.91962800000001
 31
0.0
  0
TEXT
  5
18D
330
6B
100
AcDbEntity
  8
0
 62
     3
100
AcDbText
 10
678.3194049999998
 20
-43.628694
 30
0.0
 40
1.8
  1
D
 41
0.666667
100
AcDbText
  0
TEXT
  5
18E
330
6B
100
AcDbEntity
  8
0
 62
     3
100
AcDbText
 10
681.136033
 20
-43.628694
 30
0.0
 40
1.8
  1
E
 41
0.666667
100
AcDbText
  0
TEXT
  5
18F
330
6B
100
AcDbEntity
  8
0
 62
     3
100
AcDbText
 10
683.952661
 20
-43.628694
 30
0.0
 40
1.8
  1
F
 41
0.666667
100
AcDbText
  0
TEXT
  5
190
330
6B
100
AcDbEntity
  8
0
 62
     3
100
AcDbText
 10
678.3194049999998
 20
-47.621247
 30
0.0
 40
3.2
  1
製図
 41
1.076369
100
AcDbText
  0
LINE
  5
191
330
6B
100
AcDbEntity
  8
0
 62
     3
100
AcDbLine
 10
576.391523
 20
-39.91962800000001
 30
0.0
 11
576.391523
 21
-79.585351
 31
0.0
  0
TEXT
  5
192
330
6B
100
AcDbEntity
  8
0
 62
     3
100
AcDbText
 10
577.768175
 20
-79.252886
 30
0.0
 40
5.0
  1
日動工業株式会社
 41
0.833333
100
AcDbText
  0
LINE
  5
193
330
6B
100
AcDbEntity
  8
0
 62
     3
100
AcDbLine
 10
619.2739259999998
 20
-55.91962800000001
 30
0.0
 11
619.2739259999998
 21
-79.585351
 31
0.0
  0
LINE
  5
194
330
6B
100
AcDbEntity
  8
0
 62
     3
100
AcDbLine
 10
619.2739259999998
 20
-74.75249000000002
 30
0.0
 11
635.9956019999998
 21
-74.75249000000002
 31
0.0
  0
TEXT
  5
195
330
6B
100
AcDbEntity
  8
0
 62
     3
100
AcDbText
 10
619.860528
 20
-73.936059
 30
0.0
 40
3.2
  1
出図コード
 41
0.8356860000000001
100
AcDbText
  0
LINE
  5
1A7
330
6B
100
AcDbEntity
  8
0
 62
     3
100
AcDbLine
 10
576.391523
 20
-69.919628
 30
0.0
 11
687.694965
 21
-69.919628
 31
0.0
  0
LINE
  5
1A9
330
6B
100
AcDbEntity
  8
0
 62
     3
100
AcDbLine
 10
576.391523
 20
-48.91962799999999
 30
0.0
 11
687.694965
 21
-48.919628
 31
0.0
  0
LINE
  5
1AF
330
6B
100
AcDbEntity
  8
0
 62
     3
100
AcDbLine
 10
576.391523
 20
-55.91962800000001
 30
0.0
 11
635.9956019999998
 21
-55.91962800000001
 31
0.0
  0
LINE
  5
1B5
330
6B
100
AcDbEntity
  8
0
 62
     3
100
AcDbLine
 10
576.391523
 20
-62.919628
 30
0.0
 11
687.694965
 21
-62.919628
 31
0.0
  0
LINE
  5
1B9
330
6B
100
AcDbEntity
  8
0
 62
     3
100
AcDbLine
 10
687.694965
 20
194.47001
 30
0.0
 11
687.694965
 21
-79.585351
 31
0.0
  0
LINE
  5
1BA
330
6B
100
AcDbEntity
  8
0
 62
     3
100
AcDbLine
 10
297.694965
 20
194.47001
 30
0.0
 11
297.694965
 21
-79.585351
 31
0.0
  0
LINE
  5
1BB
330
6B
100
AcDbEntity
  8
0
 62
     3
100
AcDbLine
 10
687.694965
 20
-79.585351
 30
0.0
 11
297.694965
 21
-79.585351
 31
0.0
  0
TEXT
  5
1BE
330
6B
100
AcDbEntity
  8
0
 62
     3
100
AcDbText
 10
619.72798
 20
-79.24813481809008
 30
0.0
 40
3.2
  1
ZK-A3X
 41
0.8112849999999999
100
AcDbText
  0
LINE
  5
1BF
330
6B
100
AcDbEntity
  8
0
 62
     2
100
AcDbLine
 10
475.4698549999998
 20
196.910012
 30
0.0
 11
476.0923519999998
 21
196.585058
 31
0.0
  0
LINE
  5
1C0
330
6B
100
AcDbEntity
  8
0
 62
     2
100
AcDbLine
 10
475.4698549999998
 20
191.58054
 30
0.0
 11
476.0923519999998
 21
191.905495
 31
0.0
  0
LINE
  5
1C1
330
6B
100
AcDbEntity
  8
0
 62
     2
100
AcDbLine
 10
476.0923519999998
 20
196.585058
 30
0.0
 11
476.0923519999998
 21
191.905495
 31
0.0
  0
LINE
  5
1C2
330
6B
100
AcDbEntity
  8
0
 62
     2
100
AcDbLine
 10
477.6688049999998
 20
191.58054
 30
0.0
 11
477.0463079999998
 21
191.905495
 31
0.0
  0
LINE
  5
1C3
330
6B
100
AcDbEntity
  8
0
 62
     2
100
AcDbLine
 10
477.0463079999998
 20
194.75815
 30
0.0
 11
477.0463079999998
 21
191.905495
 31
0.0
  0
LINE
  5
1C4
330
6B
100
AcDbEntity
  8
0
 62
     2
100
AcDbLine
 10
481.300038
 20
196.910012
 30
0.0
 11
480.677541
 21
196.585058
 31
0.0
  0
LINE
  5
1C5
330
6B
100
AcDbEntity
  8
0
 62
     2
100
AcDbLine
 10
479.101087
 20
196.910012
 30
0.0
 11
479.7235839999998
 21
196.585058
 31
0.0
  0
LINE
  5
1C6
330
6B
100
AcDbEntity
  8
0
 62
     2
100
AcDbLine
 10
479.7235839999998
 20
196.585058
 30
0.0
 11
479.7235839999998
 21
194.524576
 31
0.0
  0
LINE
  5
1C7
330
6B
100
AcDbEntity
  8
0
 62
     2
100
AcDbLine
 10
480.677541
 20
196.585058
 30
0.0
 11
480.677541
 21
191.27831
 31
0.0
  0
LINE
  5
1C8
330
6B
100
AcDbEntity
  8
0
 62
     2
100
AcDbLine
 10
481.6076049999998
 20
196.910008
 30
0.0
 11
482.2301
 21
196.58505
 31
0.0
  0
LINE
  5
1C9
330
6B
100
AcDbEntity
  8
0
 62
     2
100
AcDbLine
 10
481.607494
 20
191.580611
 30
0.0
 11
482.2300019999998
 21
191.905544
 31
0.0
  0
LINE
  5
1CA
330
6B
100
AcDbEntity
  8
0
 62
     2
100
AcDbLine
 10
482.2301
 20
196.58505
 30
0.0
 11
482.2301
 21
191.905544
 31
0.0
  0
LINE
  5
1CB
330
6B
100
AcDbEntity
  8
0
 62
     2
100
AcDbLine
 10
484.364086
 20
196.909975
 30
0.0
 11
483.741584
 21
196.585029
 31
0.0
  0
LINE
  5
1CC
330
6B
100
AcDbEntity
  8
0
 62
     2
100
AcDbLine
 10
483.741584
 20
196.585029
 30
0.0
 11
483.741584
 21
191.905523
 31
0.0
  0
LINE
  5
1CD
330
6B
100
AcDbEntity
  8
0
 62
     2
100
AcDbLine
 10
484.364086
 20
191.580578
 30
0.0
 11
483.741584
 21
191.905523
 31
0.0
  0
LINE
  5
1CE
330
6B
100
AcDbEntity
  8
0
 62
     2
100
AcDbLine
 10
489.635876
 20
196.909916
 30
0.0
 11
490.2583719999998
 21
196.584959
 31
0.0
  0
LINE
  5
1CF
330
6B
100
AcDbEntity
  8
0
 62
     2
100
AcDbLine
 10
490.2583719999998
 20
196.584959
 30
0.0
 11
490.25829
 21
191.905454
 31
0.0
  0
LINE
  5
1D0
330
6B
100
AcDbEntity
  8
0
 62
     2
100
AcDbLine
 10
489.635783
 20
191.580519
 30
0.0
 11
490.25829
 21
191.905454
 31
0.0
  0
LINE
  5
1D1
330
6B
100
AcDbEntity
  8
0
 62
     2
100
AcDbLine
 10
492.42482
 20
196.909916
 30
0.0
 11
491.802324
 21
196.584959
 31
0.0
  0
LINE
  5
1D2
330
6B
100
AcDbEntity
  8
0
 62
     2
100
AcDbLine
 10
492.4249129999998
 20
191.580519
 30
0.0
 11
491.8024059999998
 21
191.905454
 31
0.0
  0
LINE
  5
1D3
330
6B
100
AcDbEntity
  8
0
 62
     2
100
AcDbLine
 10
492.7158599999998
 20
196.909916
 30
0.0
 11
493.338356
 21
196.584959
 31
0.0
  0
LINE
  5
1D4
330
6B
100
AcDbEntity
  8
0
 62
     2
100
AcDbLine
 10
492.7157669999998
 20
191.580519
 30
0.0
 11
493.3382739999998
 21
191.905454
 31
0.0
  0
LINE
  5
1D5
330
6B
100
AcDbEntity
  8
0
 62
     2
100
AcDbLine
 10
495.504804
 20
196.909916
 30
0.0
 11
494.8823089999998
 21
196.584959
 31
0.0
  0
LINE
  5
1D6
330
6B
100
AcDbEntity
  8
0
 62
     2
100
AcDbLine
 10
494.8823089999998
 20
196.584959
 30
0.0
 11
494.88239
 21
191.905454
 31
0.0
  0
LINE
  5
1D7
330
6B
100
AcDbEntity
  8
0
 62
     2
100
AcDbLine
 10
495.5048969999999
 20
191.580519
 30
0.0
 11
494.88239
 21
191.905454
 31
0.0
  0
LINE
  5
1D8
330
6B
100
AcDbEntity
  8
0
 62
     2
100
AcDbLine
 10
493.33832
 20
194.546198
 30
0.0
 11
491.8023599999998
 21
194.546198
 31
0.0
  0
LINE
  5
1D9
330
6B
100
AcDbEntity
  8
0
 62
     2
100
AcDbLine
 10
493.3383099999998
 20
193.944354
 30
0.0
 11
491.8023709999998
 21
193.944354
 31
0.0
  0
LINE
  5
1DA
330
6B
100
AcDbEntity
  8
0
 62
     2
100
AcDbLine
 10
493.338356
 20
196.584959
 30
0.0
 11
493.33832
 21
194.546198
 31
0.0
  0
LINE
  5
1DB
330
6B
100
AcDbEntity
  8
0
 62
     2
100
AcDbLine
 10
493.3383099999998
 20
193.944354
 30
0.0
 11
493.3382739999998
 21
191.905454
 31
0.0
  0
LINE
  5
1DC
330
6B
100
AcDbEntity
  8
0
 62
     2
100
AcDbLine
 10
491.802324
 20
196.584959
 30
0.0
 11
491.8023599999998
 21
194.546198
 31
0.0
  0
LINE
  5
1DD
330
6B
100
AcDbEntity
  8
0
 62
     2
100
AcDbLine
 10
491.8023709999998
 20
193.944354
 30
0.0
 11
491.8024059999998
 21
191.905454
 31
0.0
  0
LINE
  5
1DE
330
6B
100
AcDbEntity
  8
0
 62
     2
100
AcDbLine
 10
495.8004599999998
 20
196.909916
 30
0.0
 11
496.4229559999998
 21
196.584959
 31
0.0
  0
LINE
  5
1DF
330
6B
100
AcDbEntity
  8
0
 62
     2
100
AcDbLine
 10
496.4229559999998
 20
196.584959
 30
0.0
 11
496.422875
 21
191.905454
 31
0.0
  0
LINE
  5
1E0
330
6B
100
AcDbEntity
  8
0
 62
     2
100
AcDbLine
 10
495.800367
 20
191.580519
 30
0.0
 11
496.422875
 21
191.905454
 31
0.0
  0
LINE
  5
1E1
330
6B
100
AcDbEntity
  8
0
 62
     2
100
AcDbLine
 10
498.556904
 20
196.909916
 30
0.0
 11
497.934408
 21
196.584959
 31
0.0
  0
LINE
  5
1E2
330
6B
100
AcDbEntity
  8
0
 62
     2
100
AcDbLine
 10
497.934408
 20
196.584959
 30
0.0
 11
497.934489
 21
191.905454
 31
0.0
  0
LINE
  5
1E3
330
6B
100
AcDbEntity
  8
0
 62
     2
100
AcDbLine
 10
498.5569969999998
 20
191.580519
 30
0.0
 11
497.934489
 21
191.905454
 31
0.0
  0
LINE
  5
1E4
330
6B
100
AcDbEntity
  8
0
 62
     2
100
AcDbLine
 10
498.8631309999998
 20
196.909916
 30
0.0
 11
499.4856269999998
 21
196.584959
 31
0.0
  0
LINE
  5
1E5
330
6B
100
AcDbEntity
  8
0
 62
     2
100
AcDbLine
 10
499.4856269999998
 20
196.584959
 30
0.0
 11
499.485546
 21
191.905454
 31
0.0
  0
LINE
  5
1E6
330
6B
100
AcDbEntity
  8
0
 62
     2
100
AcDbLine
 10
498.863038
 20
191.580519
 30
0.0
 11
499.485546
 21
191.905454
 31
0.0
  0
ARC
  5
1E7
330
6B
100
AcDbEntity
  8
0
 62
     2
100
AcDbCircle
 10
487.6474309999998
 20
194.25869
 30
0.0
 40
2.980408
100
AcDbArc
 50
97.701524
 51
270.0
  0
ARC
  5
1E8
330
6B
100
AcDbEntity
  8
0
 62
     2
100
AcDbCircle
 10
506.0482900000002
 20
194.228752
 30
0.0
 40
3.012775999999998
100
AcDbArc
 50
0.31425
 51
69.00558199999998
  0
ARC
  5
1E9
330
6B
100
AcDbEntity
  8
0
 62
     2
100
AcDbCircle
 10
506.7063969999998
 20
194.228752
 30
0.0
 40
3.012775999999998
100
AcDbArc
 50
110.994418
 51
148.116611
  0
ARC
  5
1EA
330
6B
100
AcDbEntity
  8
0
 62
     2
100
AcDbCircle
 10
506.0482900000002
 20
194.2618
 30
0.0
 40
3.012775999999998
100
AcDbArc
 50
290.994418
 51
359.68575
  0
ARC
  5
1EB
330
6B
100
AcDbEntity
  8
0
 62
     2
100
AcDbCircle
 10
506.7063969999998
 20
194.2618
 30
0.0
 40
3.012775999999998
100
AcDbArc
 50
211.883389
 51
249.005582
  0
ARC
  5
1EC
330
6B
100
AcDbEntity
  8
0
 62
     2
100
AcDbCircle
 10
506.377344
 20
195.477855
 30
0.0
 40
1.734386999999999
100
AcDbArc
 50
64.365172
 51
115.634828
  0
ARC
  5
1ED
330
6B
100
AcDbEntity
  8
0
 62
     2
100
AcDbCircle
 10
506.377344
 20
193.012697
 30
0.0
 40
1.734386999999999
100
AcDbArc
 50
244.365172
 51
295.634828
  0
ARC
  5
1EE
330
6B
100
AcDbEntity
  8
0
 62
     2
100
AcDbCircle
 10
506.377344
 20
195.510801
 30
0.0
 40
0.8512219999999999
100
AcDbArc
 50
19.486606
 51
160.513394
  0
ARC
  5
1EF
330
6B
100
AcDbEntity
  8
0
 62
     2
100
AcDbCircle
 10
506.377344
 20
192.979752
 30
0.0
 40
0.8512219999999999
100
AcDbArc
 50
199.4866059999999
 51
340.513394
  0
ARC
  5
1F0
330
6B
100
AcDbEntity
  8
0
 62
     3
100
AcDbCircle
 10
499.602383
 20
162.490905
 30
0.0
 40
37.20000000000001
100
AcDbArc
 50
69.50571500000001
 51
81.689988
  0
ARC
  5
1F1
330
6B
100
AcDbEntity
  8
0
 62
     3
100
AcDbCircle
 10
499.602383
 20
225.999647
 30
0.0
 40
37.20000000000001
100
AcDbArc
 50
278.310012
 51
290.494285
  0
ARC
  5
1F2
330
6B
100
AcDbEntity
  8
0
 62
     3
100
AcDbCircle
 10
511.4712459999998
 20
194.245276
 30
0.0
 40
3.299999999999998
100
AcDbArc
 50
290.494285
 51
69.50571500000001
  0
ARC
  5
1F3
330
6B
100
AcDbEntity
  8
0
 62
     3
100
AcDbCircle
 10
472.471246
 20
194.245276
 30
0.0
 40
3.299999999999998
100
AcDbArc
 50
110.494285
 51
249.505715
  0
ARC
  5
1F4
330
6B
100
AcDbEntity
  8
0
 62
     3
100
AcDbCircle
 10
484.3401089999998
 20
162.490905
 30
0.0
 40
37.20000000000001
100
AcDbArc
 50
98.31001200000001
 51
110.494285
  0
ARC
  5
1F5
330
6B
100
AcDbEntity
  8
0
 62
     3
100
AcDbCircle
 10
484.3401089999998
 20
225.999647
 30
0.0
 40
37.20000000000001
100
AcDbArc
 50
249.505715
 51
261.689988
  0
ARC
  5
1F6
330
6B
100
AcDbEntity
  8
0
 62
     3
100
AcDbCircle
 10
491.971246
 20
110.245276
 30
0.0
 40
90.0
100
AcDbArc
 50
81.689988
 51
98.31001200000001
  0
ARC
  5
1F7
330
6B
100
AcDbEntity
  8
0
 62
     3
100
AcDbCircle
 10
491.971246
 20
278.245276
 30
0.0
 40
90.0
100
AcDbArc
 50
261.689988
 51
278.310012
  0
ARC
  5
1F8
330
6B
100
AcDbEntity
  8
0
 62
     3
100
AcDbCircle
 10
491.971246
 20
110.245276
 30
0.0
 40
89.1
100
AcDbArc
 50
81.689988
 51
98.31001200000001
  0
ARC
  5
1F9
330
6B
100
AcDbEntity
  8
0
 62
     3
100
AcDbCircle
 10
491.971246
 20
278.245276
 30
0.0
 40
89.1
100
AcDbArc
 50
261.689988
 51
278.310012
  0
ARC
  5
1FA
330
6B
100
AcDbEntity
  8
0
 62
     3
100
AcDbCircle
 10
499.602383
 20
225.999647
 30
0.0
 40
36.3
100
AcDbArc
 50
278.310012
 51
290.494285
  0
ARC
  5
1FB
330
6B
100
AcDbEntity
  8
0
 62
     3
100
AcDbCircle
 10
499.602383
 20
162.490905
 30
0.0
 40
36.3
100
AcDbArc
 50
69.50571500000001
 51
81.689988
  0
ARC
  5
1FC
330
6B
100
AcDbEntity
  8
0
 62
     3
100
AcDbCircle
 10
511.4712459999998
 20
194.245276
 30
0.0
 40
2.399999999999999
100
AcDbArc
 50
290.494285
 51
69.50571500000001
  0
ARC
  5
1FD
330
6B
100
AcDbEntity
  8
0
 62
     3
100
AcDbCircle
 10
472.471246
 20
194.245276
 30
0.0
 40
2.399999999999999
100
AcDbArc
 50
110.494285
 51
249.505715
  0
ARC
  5
1FE
330
6B
100
AcDbEntity
  8
0
 62
     3
100
AcDbCircle
 10
484.3401089999998
 20
162.490905
 30
0.0
 40
36.3
100
AcDbArc
 50
98.31001200000001
 51
110.494285
  0
ARC
  5
1FF
330
6B
100
AcDbEntity
  8
0
 62
     3
100
AcDbCircle
 10
484.3401089999998
 20
225.999647
 30
0.0
 40
36.3
100
AcDbArc
 50
249.505715
 51
261.689988
  0
LINE
  5
200
330
6B
100
AcDbEntity
  8
0
 62
     2
100
AcDbLine
 10
498.5569049999998
 20
191.27831
 30
0.0
 11
495.8004589999998
 21
191.27831
 31
0.0
  0
LINE
  5
201
330
6B
100
AcDbEntity
  8
0
 62
     2
100
AcDbLine
 10
498.5569049999998
 20
191.58054
 30
0.0
 11
498.5569049999998
 21
191.27831
 31
0.0
  0
LINE
  5
202
330
6B
100
AcDbEntity
  8
0
 62
     2
100
AcDbLine
 10
495.504806
 20
197.212101
 30
0.0
 11
492.7158589999998
 21
197.212101
 31
0.0
  0
LINE
  5
203
330
6B
100
AcDbEntity
  8
0
 62
     2
100
AcDbLine
 10
495.504806
 20
197.212101
 30
0.0
 11
495.504806
 21
196.910012
 31
0.0
  0
LINE
  5
204
330
6B
100
AcDbEntity
  8
0
 62
     2
100
AcDbLine
 10
495.504806
 20
191.58054
 30
0.0
 11
495.504806
 21
191.278169
 31
0.0
  0
LINE
  5
205
330
6B
100
AcDbEntity
  8
0
 62
     2
100
AcDbLine
 10
495.504806
 20
191.278169
 30
0.0
 11
492.7158589999998
 21
191.278169
 31
0.0
  0
LINE
  5
206
330
6B
100
AcDbEntity
  8
0
 62
     2
100
AcDbLine
 10
498.5569049999998
 20
197.212242
 30
0.0
 11
498.5569049999998
 21
196.910012
 31
0.0
  0
LINE
  5
207
330
6B
100
AcDbEntity
  8
0
 62
     2
100
AcDbLine
 10
498.5569049999998
 20
197.212242
 30
0.0
 11
495.8004589999998
 21
197.212242
 31
0.0
  0
LINE
  5
208
330
6B
100
AcDbEntity
  8
0
 62
     2
100
AcDbLine
 10
495.8004589999998
 20
197.212242
 30
0.0
 11
495.8004589999998
 21
196.910012
 31
0.0
  0
LINE
  5
209
330
6B
100
AcDbEntity
  8
0
 62
     2
100
AcDbLine
 10
498.8631299999998
 20
191.58054
 30
0.0
 11
498.8631299999998
 21
191.27831
 31
0.0
  0
LINE
  5
20A
330
6B
100
AcDbEntity
  8
0
 62
     2
100
AcDbLine
 10
501.697845
 20
191.27831
 30
0.0
 11
498.8631299999998
 21
191.27831
 31
0.0
  0
LINE
  5
20B
330
6B
100
AcDbEntity
  8
0
 62
     2
100
AcDbLine
 10
500.9970789999998
 20
196.258286
 30
0.0
 11
500.9970789999998
 21
192.232266
 31
0.0
  0
LINE
  5
20C
330
6B
100
AcDbEntity
  8
0
 62
     2
100
AcDbLine
 10
500.9970789999998
 20
192.232266
 30
0.0
 11
501.2685769999998
 21
192.232266
 31
0.0
  0
ARC
  5
20D
330
6B
100
AcDbEntity
  8
0
 62
     2
100
AcDbCircle
 10
499.8803119999998
 20
194.245276
 30
0.0
 40
2.445299
100
AcDbArc
 50
304.591955
 51
55.408045
  0
LINE
  5
20E
330
6B
100
AcDbEntity
  8
0
 62
     2
100
AcDbLine
 10
501.697845
 20
197.212242
 30
0.0
 11
498.8631299999998
 21
197.212242
 31
0.0
  0
LINE
  5
20F
330
6B
100
AcDbEntity
  8
0
 62
     2
100
AcDbLine
 10
498.8631299999998
 20
197.212242
 30
0.0
 11
498.8631299999998
 21
196.910012
 31
0.0
  0
LINE
  5
210
330
6B
100
AcDbEntity
  8
0
 62
     2
100
AcDbLine
 10
495.8004589999998
 20
191.58054
 30
0.0
 11
495.8004589999998
 21
191.27831
 31
0.0
  0
LINE
  5
211
330
6B
100
AcDbEntity
  8
0
 62
     2
100
AcDbLine
 10
500.9970789999998
 20
196.258286
 30
0.0
 11
501.2685769999998
 21
196.258286
 31
0.0
  0
LINE
  5
212
330
6B
100
AcDbEntity
  8
0
 62
     2
100
AcDbLine
 10
484.363994
 20
191.58054
 30
0.0
 11
484.363988
 21
191.278282
 31
0.0
  0
LINE
  5
213
330
6B
100
AcDbEntity
  8
0
 62
     2
100
AcDbLine
 10
481.6075429999998
 20
191.278338
 30
0.0
 11
484.363988
 21
191.27829
 31
0.0
  0
LINE
  5
214
330
6B
100
AcDbEntity
  8
0
 62
     2
100
AcDbLine
 10
475.4698549999998
 20
191.27831
 30
0.0
 11
477.6688049999998
 21
191.27831
 31
0.0
  0
ARC
  5
215
330
6B
100
AcDbEntity
  8
0
 62
     2
100
AcDbCircle
 10
468.352794
 20
194.315143
 30
0.0
 40
21.019379
100
AcDbArc
 50
353.866006
 51
357.694034
  0
LINE
  5
216
330
6B
100
AcDbEntity
  8
0
 62
     2
100
AcDbLine
 10
487.947908
 20
193.474618
 30
0.0
 11
489.3551519999999
 21
193.469411
 31
0.0
  0
LINE
  5
259
330
6B
100
AcDbEntity
  8
0
 62
     2
100
AcDbLine
 10
487.953591
 20
195.010639
 30
0.0
 11
489.360835
 21
195.005432
 31
0.0
  0
ARC
  5
25A
330
6B
100
AcDbEntity
  8
0
 62
     2
100
AcDbCircle
 10
468.352794
 20
194.315143
 30
0.0
 40
21.019379
100
AcDbArc
 50
1.881965999999999
 51
5.709994
  0
LINE
  5
25B
330
6B
100
AcDbEntity
  8
0
 62
     2
100
AcDbLine
 10
484.3640919999998
 20
197.212214
 30
0.0
 11
484.3640869999998
 21
196.910012
 31
0.0
  0
LINE
  5
25C
330
6B
100
AcDbEntity
  8
0
 62
     2
100
AcDbLine
 10
481.6076459999998
 20
197.212271
 30
0.0
 11
484.3640919999998
 21
197.212223
 31
0.0
  0
LINE
  5
25D
330
6B
100
AcDbEntity
  8
0
 62
     2
100
AcDbLine
 10
481.6075480000002
 20
191.58054
 30
0.0
 11
481.6075429999998
 21
191.278338
 31
0.0
  0
LINE
  5
25E
330
6B
100
AcDbEntity
  8
0
 62
     2
100
AcDbLine
 10
481.6076459999998
 20
197.212271
 30
0.0
 11
481.6076409999998
 21
196.910012
 31
0.0
  0
LINE
  5
25F
330
6B
100
AcDbEntity
  8
0
 62
     2
100
AcDbLine
 10
477.6688049999998
 20
191.58054
 30
0.0
 11
477.6688049999998
 21
191.27831
 31
0.0
  0
LINE
  5
260
330
6B
100
AcDbEntity
  8
0
 62
     2
100
AcDbLine
 10
477.0463079999998
 20
194.75815
 30
0.0
 11
479.2212079999997
 21
191.27831
 31
0.0
  0
LINE
  5
261
330
6B
100
AcDbEntity
  8
0
 62
     2
100
AcDbLine
 10
479.2212079999997
 20
191.27831
 30
0.0
 11
480.677541
 21
191.27831
 31
0.0
  0
LINE
  5
262
330
6B
100
AcDbEntity
  8
0
 62
     2
100
AcDbLine
 10
481.300038
 20
197.212242
 30
0.0
 11
481.300038
 21
196.910012
 31
0.0
  0
LINE
  5
263
330
6B
100
AcDbEntity
  8
0
 62
     2
100
AcDbLine
 10
479.101087
 20
197.212242
 30
0.0
 11
481.300038
 21
197.212242
 31
0.0
  0
LINE
  5
264
330
6B
100
AcDbEntity
  8
0
 62
     2
100
AcDbLine
 10
479.101087
 20
197.212242
 30
0.0
 11
479.101087
 21
196.910012
 31
0.0
  0
LINE
  5
265
330
6B
100
AcDbEntity
  8
0
 62
     2
100
AcDbLine
 10
479.7235839999998
 20
194.524576
 30
0.0
 11
477.959803
 21
197.212242
 31
0.0
  0
LINE
  5
266
330
6B
100
AcDbEntity
  8
0
 62
     2
100
AcDbLine
 10
475.4698549999998
 20
197.212242
 30
0.0
 11
477.959803
 21
197.212242
 31
0.0
  0
LINE
  5
267
330
6B
100
AcDbEntity
  8
0
 62
     2
100
AcDbLine
 10
489.635875
 20
197.212101
 30
0.0
 11
492.424821
 21
197.212101
 31
0.0
  0
LINE
  5
268
330
6B
100
AcDbEntity
  8
0
 62
     2
100
AcDbLine
 10
489.635875
 20
196.910012
 30
0.0
 11
489.635875
 21
197.212101
 31
0.0
  0
LINE
  5
269
330
6B
100
AcDbEntity
  8
0
 62
     2
100
AcDbLine
 10
489.635875
 20
191.278169
 30
0.0
 11
489.635875
 21
191.58054
 31
0.0
  0
LINE
  5
26A
330
6B
100
AcDbEntity
  8
0
 62
     2
100
AcDbLine
 10
489.635875
 20
191.278169
 30
0.0
 11
492.424821
 21
191.278169
 31
0.0
  0
LINE
  5
26B
330
6B
100
AcDbEntity
  8
0
 62
     2
100
AcDbLine
 10
492.7158589999998
 20
191.58054
 30
0.0
 11
492.7158589999998
 21
191.278169
 31
0.0
  0
LINE
  5
26C
330
6B
100
AcDbEntity
  8
0
 62
     2
100
AcDbLine
 10
492.424821
 20
191.58054
 30
0.0
 11
492.424821
 21
191.278169
 31
0.0
  0
LINE
  5
26D
330
6B
100
AcDbEntity
  8
0
 62
     2
100
AcDbLine
 10
492.424821
 20
196.910012
 30
0.0
 11
492.424821
 21
197.212101
 31
0.0
  0
LINE
  5
26E
330
6B
100
AcDbEntity
  8
0
 62
     2
100
AcDbLine
 10
492.7158589999998
 20
196.910012
 30
0.0
 11
492.7158589999998
 21
197.212101
 31
0.0
  0
LINE
  5
26F
330
6B
100
AcDbEntity
  8
0
 62
     2
100
AcDbLine
 10
475.4698549999998
 20
191.58054
 30
0.0
 11
475.4698549999998
 21
191.27831
 31
0.0
  0
LINE
  5
270
330
6B
100
AcDbEntity
  8
0
 62
     2
100
AcDbLine
 10
475.4698549999998
 20
197.212242
 30
0.0
 11
475.4698549999998
 21
196.910012
 31
0.0
  0
ARC
  5
271
330
6B
100
AcDbEntity
  8
0
 62
     2
100
AcDbCircle
 10
501.997845
 20
194.867773
 30
0.0
 40
2.344468999999999
100
AcDbArc
 50
17.308749
 51
23.765071
  0
ARC
  5
272
330
6B
100
AcDbEntity
  8
0
 62
     2
100
AcDbCircle
 10
500.000312
 20
194.245276
 30
0.0
 40
4.436751
100
AcDbArc
 50
342.691251
 51
17.308566
  0
ARC
  5
273
330
6B
100
AcDbEntity
  8
0
 62
     2
100
AcDbCircle
 10
501.997845
 20
193.622779
 30
0.0
 40
2.344468999999999
100
AcDbArc
 50
336.234929
 51
342.691251
  0
ARC
  5
274
330
6B
100
AcDbEntity
  8
0
 62
     2
100
AcDbCircle
 10
501.697845
 20
194.867773
 30
0.0
 40
2.344468999999999
100
AcDbArc
 50
17.308749
 51
90.0
  0
ARC
  5
275
330
6B
100
AcDbEntity
  8
0
 62
     2
100
AcDbCircle
 10
499.700312
 20
194.245276
 30
0.0
 40
4.436751
100
AcDbArc
 50
342.691251
 51
17.308566
  0
ARC
  5
276
330
6B
100
AcDbEntity
  8
0
 62
     2
100
AcDbCircle
 10
501.697845
 20
193.622779
 30
0.0
 40
2.344468999999999
100
AcDbArc
 50
270.0
 51
342.691251
  0
ARC
  5
277
330
6B
100
AcDbEntity
  8
0
 62
     2
100
AcDbCircle
 10
487.235073
 20
194.245276
 30
0.0
 40
2.966965999999998
100
AcDbArc
 50
46.75287999999999
 51
89.749998
  0
ARC
  5
278
330
6B
100
AcDbEntity
  8
0
 62
     2
100
AcDbCircle
 10
487.235073
 20
194.245276
 30
0.0
 40
2.966965999999998
100
AcDbArc
 50
273.976333
 51
312.82312
  0
ARC
  5
279
330
6B
100
AcDbEntity
  8
0
 62
     2
100
AcDbCircle
 10
503.5805129999998
 20
194.199474
 30
0.0
 40
3.936983999999998
100
AcDbArc
 50
0.6665840000000001
 51
23.903928
  0
ARC
  5
27A
330
6B
100
AcDbEntity
  8
0
 62
     2
100
AcDbCircle
 10
509.174174
 20
194.199474
 30
0.0
 40
3.936983999999998
100
AcDbArc
 50
156.096072
 51
179.333416
  0
ARC
  5
27B
330
6B
100
AcDbEntity
  8
0
 62
     2
100
AcDbCircle
 10
503.5805129999998
 20
194.291078
 30
0.0
 40
3.936983999999998
100
AcDbArc
 50
336.096072
 51
359.333416
  0
ARC
  5
27C
330
6B
100
AcDbEntity
  8
0
 62
     2
100
AcDbCircle
 10
509.174174
 20
194.291078
 30
0.0
 40
3.936983999999998
100
AcDbArc
 50
180.666584
 51
203.903928
  0
LINE
  5
27D
330
6B
100
AcDbEntity
  8
0
 62
     3
100
AcDbLine
 10
516.3516900000002
 20
194.47001
 30
0.0
 11
687.694965
 21
194.47001
 31
0.0
  0
LINE
  5
27E
330
6B
100
AcDbEntity
  8
0
 62
     3
100
AcDbLine
 10
467.7976559999998
 20
194.47001
 30
0.0
 11
297.694965
 21
194.47001
 31
0.0
  0
TEXT
  5
27F
330
6B
100
AcDbEntity
  8
0
 62
     3
100
AcDbText
 10
578.208919
 20
-43.750103
 30
0.0
 40
2.0
  1
CONPONENTS
 41
0.5331600000000001
100
AcDbText
  0
TEXT
  5
280
330
6B
100
AcDbEntity
  8
0
 62
     3
100
AcDbText
 10
577.859193
 20
-62.682279
 30
0.0
 40
3.0
  1
材
 41
0.833333
100
AcDbText
  0
TEXT
  5
281
330
6B
100
AcDbEntity
  8
0
 62
     3
100
AcDbText
 10
585.394836
 20
-62.682279
 30
0.0
 40
3.0
  1
質
 41
0.833333
100
AcDbText
  0
TEXT
  5
282
330
6B
100
AcDbEntity
  8
0
 62
     3
100
AcDbText
 10
577.947264
 20
-52.057755
 30
0.0
 40
2.0
  1
MODEL
 41
1.031072999999999
100
AcDbText
  0
TEXT
  5
283
330
6B
100
AcDbEntity
  8
0
 62
     3
100
AcDbText
 10
577.859193
 20
-58.999971
 30
0.0
 40
2.0
  1
MATERIAL
 41
0.659278
100
AcDbText
  0
TEXT
  5
284
330
6B
100
AcDbEntity
  8
0
 62
     3
100
AcDbText
 10
609.1664729999998
 20
-62.682279
 30
0.0
 40
3.0
  1
備
 41
0.833333
100
AcDbText
  0
TEXT
  5
285
330
6B
100
AcDbEntity
  8
0
 62
     3
100
AcDbText
 10
615.899475
 20
-62.682279
 30
0.0
 40
3.0
  1
考
 41
0.833333
100
AcDbText
  0
TEXT
  5
286
330
6B
100
AcDbEntity
  8
0
 62
     3
100
AcDbText
 10
609.440478655885
 20
-58.999971
 30
0.0
 40
2.0
  1
REMARKS
 41
0.675794
100
AcDbText
  0
TEXT
  5
287
330
6B
100
AcDbEntity
  8
0
 62
     3
100
AcDbText
 10
579.4489219999998
 20
-65.92009200000001
 30
0.0
 40
2.0
  1
3AD
 41
1.42614
100
AcDbText
  0
TEXT
  5
288
330
6B
100
AcDbEntity
  8
0
 62
     3
100
AcDbText
 10
588.759902
 20
-65.754358
 30
0.0
 40
2.0
  1
ANGLE
 41
1.669883999999998
100
AcDbText
  0
TEXT
  5
289
330
6B
100
AcDbEntity
  8
0
 62
     3
100
AcDbText
 10
609.6937889999998
 20
-66.131199
 30
0.0
 40
2.0
  1
SCALE
 41
0.7719630000000001
100
AcDbText
  0
TEXT
  5
28A
330
6B
100
AcDbEntity
  8
0
 62
     3
100
AcDbText
 10
579.1350519999999
 20
-69.919628
 30
0.0
 40
3.0
  1
第
 41
0.833333
100
AcDbText
  0
TEXT
  5
28B
330
6B
100
AcDbEntity
  8
0
 62
     3
100
AcDbText
 10
586.9219019999998
 20
-69.919628
 30
0.0
 40
3.0
  1
三
 41
0.833333
100
AcDbText
  0
TEXT
  5
28C
330
6B
100
AcDbEntity
  8
0
 62
     3
100
AcDbText
 10
594.708752
 20
-69.919628
 30
0.0
 40
3.0
  1
角
 41
0.833333
100
AcDbText
  0
TEXT
  5
28D
330
6B
100
AcDbEntity
  8
0
 62
     3
100
AcDbText
 10
602.4956019999998
 20
-69.919628
 30
0.0
 40
3.0
  1
法
 41
0.833333
100
AcDbText
  0
TEXT
  5
28E
330
6B
100
AcDbEntity
  8
0
 62
     3
100
AcDbText
 10
609.556994
 20
-69.63119899999999
 30
0.0
 40
3.0
  1
尺
 41
0.833333
100
AcDbText
  0
TEXT
  5
28F
330
6B
100
AcDbEntity
  8
0
 62
     3
100
AcDbText
 10
616.2899949999999
 20
-69.63119899999999
 30
0.0
 40
3.0
  1
度
 41
0.833333
100
AcDbText
  0
TEXT
  5
290
330
6B
100
AcDbEntity
  8
0
 62
     3
100
AcDbText
 10
638.873266
 20
-47.4619
 30
0.0
 40
3.0
  1
承認
 41
1.089472999999999
100
AcDbText
  0
TEXT
  5
291
330
6B
100
AcDbEntity
  8
0
 62
     3
100
AcDbText
 10
652.116146
 20
-47.519628
 30
0.0
 40
3.0
  1
検図
 41
0.931761
100
AcDbText
  0
TEXT
  5
292
330
6B
100
AcDbEntity
  8
0
 62
     3
100
AcDbText
 10
665.1165429999998
 20
-47.519628
 30
0.0
 40
3.0
  1
設
 41
0.833333
100
AcDbText
  0
TEXT
  5
293
330
6B
100
AcDbEntity
  8
0
 62
     3
100
AcDbText
 10
669.606411
 20
-47.519628
 30
0.0
 40
3.0
  1
計
 41
0.833333
100
AcDbText
  0
TEXT
  5
294
330
6B
100
AcDbEntity
  8
0
 62
     3
100
AcDbText
 10
578.2790259999997
 20
-47.347076
 30
0.0
 40
3.0
  1
品
 41
0.833333
100
AcDbText
  0
TEXT
  5
295
330
6B
100
AcDbEntity
  8
0
 62
     3
100
AcDbText
 10
585.8146679999999
 20
-47.347076
 30
0.0
 40
3.0
  1
名
 41
0.833333
100
AcDbText
  0
TEXT
  5
296
330
6B
100
AcDbEntity
  8
0
 62
     3
100
AcDbText
 10
577.947264
 20
-55.68419198227811
 30
0.0
 40
3.0
  1
型
 41
0.833333
100
AcDbText
  0
TEXT
  5
297
330
6B
100
AcDbEntity
  8
0
 62
     3
100
AcDbText
 10
585.495354
 20
-55.68419198227811
 30
0.0
 40
3.0
  1
式
 41
0.833333
100
AcDbText
  0
TEXT
  5
29F
330
6B
100
AcDbEntity
  8
0
 62
     3
100
AcDbText
 10
408.5408779999998
 20
28.26722422732507
 30
0.0
 40
4.5
  1
主　　仕　　様
  7
高4.5
100
AcDbText
  0
TEXT
  5
2A0
330
6B
100
AcDbEntity
  8
0
 62
     3
100
AcDbText
 10
398.510969
 20
19.230819
 30
0.0
 40
4.5
  1
型　　式
  7
高4.5
100
AcDbText
  0
TEXT
  5
2A1
330
6B
100
AcDbEntity
  8
0
 62
     3
100
AcDbText
 10
398.510969
 20
6.230819
 30
0.0
 40
4.5
  1
出力電圧
  7
高4.5
100
AcDbText
  0
LINE
  5
2A8
330
6B
100
AcDbEntity
  8
0
 62
     3
100
AcDbLine
 10
285.293041
 20
60.914649
 30
0.0
 11
282.6949649999999
 21
59.41464899999999
 31
0.0
  0
LINE
  5
2A9
330
6B
100
AcDbEntity
  8
0
 62
     3
100
AcDbLine
 10
285.293041
 20
60.914649
 30
0.0
 11
282.6949649999999
 21
62.414649
 31
0.0
  0
LINE
  5
2AA
330
6B
100
AcDbEntity
  8
0
 62
     3
100
AcDbLine
 10
282.6949649999999
 20
59.41464899999999
 30
0.0
 11
282.6949649999999
 21
62.414649
 31
0.0
  0
LINE
  5
2B0
330
6B
100
AcDbEntity
  8
0
 62
     7
100
AcDbLine
 10
394.004222
 20
131.18104
 30
0.0
 11
381.442752
 21
145.319567
 31
0.0
  0
LINE
  5
2B1
330
6B
100
AcDbEntity
  8
0
 62
     7
100
AcDbLine
 10
381.442752
 20
145.319567
 30
0.0
 11
356.692752
 21
145.319567
 31
0.0
  0
TEXT
  5
2B2
102
{ACAD_XDICTIONARY
360
50F
102
}
330
6B
100
AcDbEntity
  8
0
 62
     4
100
AcDbText
 10
359.442752
 20
146.319567
 30
0.0
 40
3.2
  1
アルミ放熱
  7
高3.2
100
AcDbText
1001
AcadAnnotative
1000
AnnotativeData
1002
{
1070
     1
1070
     0
1002
}
  0
TEXT
  5
2B3
330
6B
100
AcDbEntity
  8
0
 62
     3
100
AcDbText
 10
432.978164823861
 20
19.230819
 30
0.0
 40
4.5
  1
KD-103
  7
高4.5
100
AcDbText
  0
TEXT
  5
2B4
330
6B
100
AcDbEntity
  8
0
 62
     3
100
AcDbText
 10
398.510969
 20
12.730819
 30
0.0
 40
4.5
  1
入力電圧
  7
高4.5
100
AcDbText
  0
TEXT
  5
2B5
330
6B
100
AcDbEntity
  8
0
 62
     3
100
AcDbText
 10
432.978164823861
 20
12.730819
 30
0.0
 40
4.5
  1
DC24V
  7
高4.5
100
AcDbText
  0
TEXT
  5
2B6
330
6B
100
AcDbEntity
  8
0
 62
     3
100
AcDbText
 10
398.510969
 20
-0.269181
 30
0.0
 40
4.5
  1
トランジスタ
  7
高4.5
100
AcDbText
  0
TEXT
  5
2B7
330
6B
100
AcDbEntity
  8
0
 62
     3
100
AcDbText
 10
432.978164823861
 20
-0.638162
 30
0.0
 40
4.5
  1
4石（シリコントランジスタ）
  7
高4.5
100
AcDbText
  0
TEXT
  5
2B8
330
6B
100
AcDbEntity
  8
0
 62
     3
100
AcDbText
 10
398.510969
 20
-7.138161999999998
 30
0.0
 40
4.5
  1
ダイオード
  7
高4.5
100
AcDbText
  0
TEXT
  5
2B9
330
6B
100
AcDbEntity
  8
0
 62
     3
100
AcDbText
 10
432.978164823861
 20
-6.769180999999998
 30
0.0
 40
4.5
  1
1石（シリコン・ツェナーダイオード）
  7
高4.5
100
AcDbText
  0
TEXT
  5
2BA
330
6B
100
AcDbEntity
  8
0
 62
     3
100
AcDbText
 10
398.510969
 20
-13.269181
 30
0.0
 40
4.5
  1
容　　量
  7
高4.5
100
AcDbText
  0
TEXT
  5
2BB
330
6B
100
AcDbEntity
  8
0
 62
     3
100
AcDbText
 10
432.978164823861
 20
-13.269181
 30
0.0
 40
4.5
  1
最大3A
  7
高4.5
100
AcDbText
  0
TEXT
  5
2BC
330
6B
100
AcDbEntity
  8
0
 62
     3
100
AcDbText
 10
432.978164823861
 20
-19.769181
 30
0.0
 40
4.5
  1
連続2A
  7
高4.5
100
AcDbText
  0
TEXT
  5
2BD
330
6B
100
AcDbEntity
  8
0
 62
     3
100
AcDbText
 10
398.510969
 20
-26.269181
 30
0.0
 40
4.5
  1
ヒューズ
  7
高4.5
100
AcDbText
  0
TEXT
  5
2BE
330
6B
100
AcDbEntity
  8
0
 62
     3
100
AcDbText
 10
432.978164823861
 20
-26.269181
 30
0.0
 40
4.5
  1
4A
  7
高4.5
100
AcDbText
  0
TEXT
  5
2BF
330
6B
100
AcDbEntity
  8
0
 62
     3
100
AcDbText
 10
398.510969
 20
-32.769181
 30
0.0
 40
4.5
  1
質　　量
  7
高4.5
100
AcDbText
  0
TEXT
  5
2C0
330
6B
100
AcDbEntity
  8
0
 62
     3
100
AcDbText
 10
432.978164823861
 20
-32.769181
 30
0.0
 40
4.5
  1
約0.17kg
  7
高4.5
100
AcDbText
  0
TEXT
  5
2C1
330
6B
100
AcDbEntity
  8
0
 62
     3
100
AcDbText
 10
594.8739699999999
 20
-47.50237542842352
 30
0.0
 40
4.5
  1
コンバーター
  7
高4.5
100
AcDbText
  0
TEXT
  5
2C2
330
6B
100
AcDbEntity
  8
0
 62
     3
100
AcDbText
 10
597.6402795297506
 20
-55.408252
 30
0.0
 40
4.5
  1
KD-103
  7
高4.5
100
AcDbText
  0
TEXT
  5
2C3
330
6B
100
AcDbEntity
  8
0
 62
     3
100
AcDbText
 10
641.2489122805242
 20
-78.910262
 30
0.0
 40
6.299999999999998
  1
KD-103
  7
高6.3
100
AcDbText
  0
TEXT
  5
2C4
330
6B
100
AcDbEntity
  8
0
 62
     3
100
AcDbText
 10
652.030882
 20
-69.109431
 30
0.0
 40
3.2
  1
2008.10.03
  7
高3.2
100
AcDbText
  0
TEXT
  5
2C5
330
6B
100
AcDbEntity
  8
0
 62
     3
100
AcDbText
 10
666.4040469973327
 20
-39.358128
 30
0.0
 40
4.5
  1
6336
  7
高4.5
100
AcDbText
  0
TEXT
  5
2C6
330
6B
100
AcDbEntity
  8
0
 62
     3
100
AcDbText
 10
488.753067
 20
60.766748
 30
0.0
 40
3.2
  1
青　入力24V
  7
高3.2
100
AcDbText
  0
TEXT
  5
2C7
330
6B
100
AcDbEntity
  8
0
 62
     3
100
AcDbText
 10
488.456051
 20
73.047275
 30
0.0
 40
3.2
  1
赤　出力12V
  7
高3.2
100
AcDbText
  0
TEXT
  5
2C8
330
6B
100
AcDbEntity
  8
0
 62
     3
100
AcDbText
 10
488.784988
 20
82.32651700000003
 30
0.0
 40
3.2
  1
黒　アース
  7
高3.2
100
AcDbText
  0
TEXT
  5
2C9
330
6B
100
AcDbEntity
  8
0
 62
     3
100
AcDbText
 10
537.717312
 20
53.055238
 30
0.0
 40
3.2
  1
ヒューズ4A
  7
高3.2
100
AcDbText
  0
TEXT
  5
2CA
330
6B
100
AcDbEntity
  8
0
 62
     3
100
AcDbText
 10
432.978164823861
 20
6.230819
 30
0.0
 40
4.5
  1
DC13.8V
  7
高4.5
100
AcDbText
  0
LINE
  5
2CB
330
6B
100
AcDbEntity
  8
0
 62
     3
100
AcDbLine
 10
396.5957180000001
 20
-33.438221
 30
0.0
 11
396.5957180000001
 21
25.061779
 31
0.0
  0
LINE
  5
2CC
330
6B
100
AcDbEntity
  8
0
 62
     3
100
AcDbLine
 10
431.0629138238608
 20
25.061779
 30
0.0
 11
431.0629138238608
 21
-33.438221
 31
0.0
  0
LINE
  5
2CD
330
6B
100
AcDbEntity
  8
0
 62
     3
100
AcDbLine
 10
525.5269690963192
 20
25.061779
 30
0.0
 11
525.5269690963192
 21
-33.438221
 31
0.0
  0
LINE
  5
2CE
330
6B
100
AcDbEntity
  8
0
100
AcDbLine
 10
431.0629138238608
 20
-13.938221
 30
0.0
 11
525.5269690963192
 21
-13.93822099999999
 31
0.0
  0
LINE
  5
2CF
330
6B
100
AcDbEntity
  8
0
 62
     3
100
AcDbLine
 10
396.5957180000001
 20
25.061779
 30
0.0
 11
525.5269690963192
 21
25.061779
 31
0.0
  0
LINE
  5
2D0
330
6B
100
AcDbEntity
  8
0
100
AcDbLine
 10
396.5957180000001
 20
-26.938221
 30
0.0
 11
525.5269690963192
 21
-26.938221
 31
0.0
  0
LINE
  5
2D1
330
6B
100
AcDbEntity
  8
0
100
AcDbLine
 10
396.5957180000001
 20
-20.438221
 30
0.0
 11
525.5269690963192
 21
-20.438221
 31
0.0
  0
LINE
  5
2D2
330
6B
100
AcDbEntity
  8
0
100
AcDbLine
 10
396.5957180000001
 20
-7.438221
 30
0.0
 11
525.5269690963192
 21
-7.438221
 31
0.0
  0
LINE
  5
2D3
330
6B
100
AcDbEntity
  8
0
100
AcDbLine
 10
396.5957180000001
 20
-0.9382209999999997
 30
0.0
 11
525.5269690963192
 21
-0.9382209999999997
 31
0.0
  0
LINE
  5
2D4
330
6B
100
AcDbEntity
  8
0
100
AcDbLine
 10
396.5957180000001
 20
5.561779
 30
0.0
 11
525.5269690963192
 21
5.561779
 31
0.0
  0
LINE
  5
2D5
330
6B
100
AcDbEntity
  8
0
100
AcDbLine
 10
396.5957180000001
 20
12.061779
 30
0.0
 11
525.5269690963192
 21
12.061779
 31
0.0
  0
LINE
  5
2D6
330
6B
100
AcDbEntity
  8
0
100
AcDbLine
 10
396.5957180000001
 20
18.561779
 30
0.0
 11
525.5269690963192
 21
18.561779
 31
0.0
  0
LINE
  5
2D7
330
6B
100
AcDbEntity
  8
0
 62
     3
100
AcDbLine
 10
396.5957180000001
 20
-33.438221
 30
0.0
 11
525.5269690963192
 21
-33.438221
 31
0.0
  0
TEXT
  5
3B5
330
6B
100
AcDbEntity
  8
0
 62
     3
100
AcDbText
 10
675.194965
 20
184.97001
 30
0.0
 40
3.2
  1
担　当
  7
高3.2
100
AcDbText
  0
TEXT
  5
3B6
330
6B
100
AcDbEntity
  8
0
 62
     3
100
AcDbText
 10
631.194965
 20
184.97001
 30
0.0
 40
3.2
  1
変更・追記内容
  7
高3.2
100
AcDbText
  0
TEXT
  5
3B7
330
6B
100
AcDbEntity
  8
0
 62
     3
100
AcDbText
 10
606.3084800003393
 20
180.2994714900917
 30
0.0
 40
2.0
  1
1
  7
高2
100
AcDbText
  0
TEXT
  5
3B8
330
6B
100
AcDbEntity
  8
0
 62
     3
100
AcDbText
 10
605.9999685235818
 20
175.1296547778188
 30
0.0
 40
2.0
  1
2
  7
高2
100
AcDbText
  0
TEXT
  5
3B9
330
6B
100
AcDbEntity
  8
0
 62
     3
100
AcDbText
 10
613.194965
 20
184.97001
 30
0.0
 40
3.2
  1
日　付
  7
高3.2
100
AcDbText
  0
TEXT
  5
3BA
330
6B
100
AcDbEntity
  8
0
 62
     3
100
AcDbText
 10
613.194965
 20
189.97001
 30
0.0
 40
3.2
  1
図　　　　面　　　　略　　　　歴
  7
高3.2
100
AcDbText
  0
TEXT
  5
3BB
330
6B
100
AcDbEntity
  8
0
 62
     3
100
AcDbText
 10
603.194965
 20
184.97001
 30
0.0
 40
3.2
  1
記号
  7
高3.2
100
AcDbText
  0
LINE
  5
3BC
330
6B
100
AcDbEntity
  8
0
100
AcDbLine
 10
606.694965
 20
178.260906
 30
0.0
 11
604.794965
 21
174.97001
 31
0.0
  0
LINE
  5
3BD
330
6B
100
AcDbEntity
  8
0
100
AcDbLine
 10
606.694965
 20
178.260906
 30
0.0
 11
608.5949649999998
 21
174.97001
 31
0.0
  0
LINE
  5
3BE
330
6B
100
AcDbEntity
  8
0
100
AcDbLine
 10
604.794965
 20
174.97001
 30
0.0
 11
608.5949649999998
 21
174.97001
 31
0.0
  0
LINE
  5
3BF
330
6B
100
AcDbEntity
  8
0
100
AcDbLine
 10
606.694965
 20
183.2609070000001
 30
0.0
 11
604.794965
 21
179.97001
 31
0.0
  0
LINE
  5
3C0
330
6B
100
AcDbEntity
  8
0
100
AcDbLine
 10
606.694965
 20
183.2609070000001
 30
0.0
 11
608.5949649999998
 21
179.97001
 31
0.0
  0
LINE
  5
3C1
330
6B
100
AcDbEntity
  8
0
100
AcDbLine
 10
604.794965
 20
179.97001
 30
0.0
 11
608.5949649999998
 21
179.97001
 31
0.0
  0
LINE
  5
3C2
330
6B
100
AcDbEntity
  8
0
 62
     3
100
AcDbLine
 10
601.694965
 20
189.47001
 30
0.0
 11
687.694965
 21
189.47001
 31
0.0
  0
LINE
  5
3C3
330
6B
100
AcDbEntity
  8
0
 62
     3
100
AcDbLine
 10
601.694965
 20
184.47001
 30
0.0
 11
687.694965
 21
184.47001
 31
0.0
  0
LINE
  5
3C4
330
6B
100
AcDbEntity
  8
0
 62
     7
100
AcDbLine
 10
601.694965
 20
179.47001
 30
0.0
 11
687.694965
 21
179.47001
 31
0.0
  0
LINE
  5
3C5
330
6B
100
AcDbEntity
  8
0
 62
     3
100
AcDbLine
 10
601.694965
 20
174.47001
 30
0.0
 11
687.694965
 21
174.47001
 31
0.0
  0
LINE
  5
3C6
330
6B
100
AcDbEntity
  8
0
 62
     7
100
AcDbLine
 10
673.694965
 20
174.47001
 30
0.0
 11
673.694965
 21
189.47001
 31
0.0
  0
LINE
  5
3C7
330
6B
100
AcDbEntity
  8
0
 62
     7
100
AcDbLine
 10
629.694965
 20
174.47001
 30
0.0
 11
629.694965
 21
189.47001
 31
0.0
  0
LINE
  5
3C8
330
6B
100
AcDbEntity
  8
0
 62
     7
100
AcDbLine
 10
611.694965
 20
174.47001
 30
0.0
 11
611.694965
 21
189.47001
 31
0.0
  0
LINE
  5
3C9
330
6B
100
AcDbEntity
  8
0
 62
     3
100
AcDbLine
 10
601.694965
 20
174.47001
 30
0.0
 11
601.694965
 21
194.47001
 31
0.0
  0
LINE
  5
7B9
330
6B
100
AcDbEntity
  8
0
 62
     7
100
AcDbLine
 10
392.275234
 20
132.320245
 30
0.0
 11
394.004222
 21
131.18104
 31
0.0
  0
LINE
  5
7BA
330
6B
100
AcDbEntity
  8
0
 62
     7
100
AcDbLine
 10
394.004222
 20
131.18104
 30
0.0
 11
393.076476
 21
133.032114
 31
0.0
  0
LINE
  5
7BD
330
6B
100
AcDbEntity
  8
0
 62
     2
100
AcDbLine
 10
487.953591
 20
195.010639
 30
0.0
 11
487.9269799999998
 21
195.181021
 31
0.0
  0
LINE
  5
7BE
330
6B
100
AcDbEntity
  8
0
 62
     2
100
AcDbLine
 10
487.9269799999998
 20
195.181021
 30
0.0
 11
487.895021
 21
195.344171
 31
0.0
  0
LINE
  5
7BF
330
6B
100
AcDbEntity
  8
0
 62
     2
100
AcDbLine
 10
487.895021
 20
195.344171
 30
0.0
 11
487.857962
 21
195.498827
 31
0.0
  0
LINE
  5
7C0
330
6B
100
AcDbEntity
  8
0
 62
     2
100
AcDbLine
 10
487.857962
 20
195.498827
 30
0.0
 11
487.816087
 21
195.643793
 31
0.0
  0
LINE
  5
7C1
330
6B
100
AcDbEntity
  8
0
 62
     2
100
AcDbLine
 10
487.816087
 20
195.643793
 30
0.0
 11
487.7697219999998
 21
195.77795
 31
0.0
  0
LINE
  5
7C2
330
6B
100
AcDbEntity
  8
0
 62
     2
100
AcDbLine
 10
487.7697219999998
 20
195.77795
 30
0.0
 11
487.719224
 21
195.90026
 31
0.0
  0
LINE
  5
7C3
330
6B
100
AcDbEntity
  8
0
 62
     2
100
AcDbLine
 10
487.719224
 20
195.90026
 30
0.0
 11
487.6649829999998
 21
196.009777
 31
0.0
  0
LINE
  5
7C4
330
6B
100
AcDbEntity
  8
0
 62
     2
100
AcDbLine
 10
487.6649829999998
 20
196.009777
 30
0.0
 11
487.6074199999997
 21
196.105656
 31
0.0
  0
LINE
  5
7C5
330
6B
100
AcDbEntity
  8
0
 62
     2
100
AcDbLine
 10
487.6074199999997
 20
196.105656
 30
0.0
 11
487.546979
 21
196.187156
 31
0.0
  0
LINE
  5
7C6
330
6B
100
AcDbEntity
  8
0
 62
     2
100
AcDbLine
 10
487.546979
 20
196.187156
 30
0.0
 11
487.4841269999998
 21
196.253645
 31
0.0
  0
LINE
  5
7C7
330
6B
100
AcDbEntity
  8
0
 62
     2
100
AcDbLine
 10
487.4841269999998
 20
196.253645
 30
0.0
 11
487.41935
 21
196.304611
 31
0.0
  0
LINE
  5
7C8
330
6B
100
AcDbEntity
  8
0
 62
     2
100
AcDbLine
 10
487.41935
 20
196.304611
 30
0.0
 11
487.353148
 21
196.339659
 31
0.0
  0
LINE
  5
7C9
330
6B
100
AcDbEntity
  8
0
 62
     2
100
AcDbLine
 10
487.353148
 20
196.339659
 30
0.0
 11
487.2860339999999
 21
196.358519
 31
0.0
  0
LINE
  5
7CA
330
6B
100
AcDbEntity
  8
0
 62
     2
100
AcDbLine
 10
487.2860339999999
 20
196.358519
 30
0.0
 11
487.218526
 21
196.361045
 31
0.0
  0
LINE
  5
7CB
330
6B
100
AcDbEntity
  8
0
 62
     2
100
AcDbLine
 10
487.218526
 20
196.361045
 30
0.0
 11
487.1511459999998
 21
196.347216
 31
0.0
  0
LINE
  5
7CC
330
6B
100
AcDbEntity
  8
0
 62
     2
100
AcDbLine
 10
487.1511459999998
 20
196.347216
 30
0.0
 11
487.0844139999999
 21
196.317141
 31
0.0
  0
LINE
  5
7CD
330
6B
100
AcDbEntity
  8
0
 62
     2
100
AcDbLine
 10
487.0844139999999
 20
196.317141
 30
0.0
 11
487.018847
 21
196.271051
 31
0.0
  0
LINE
  5
7CE
330
6B
100
AcDbEntity
  8
0
 62
     2
100
AcDbLine
 10
487.018847
 20
196.271051
 30
0.0
 11
486.9549519999998
 21
196.209304
 31
0.0
  0
LINE
  5
7CF
330
6B
100
AcDbEntity
  8
0
 62
     2
100
AcDbLine
 10
486.9549519999998
 20
196.209304
 30
0.0
 11
486.8932209999998
 21
196.132375
 31
0.0
  0
LINE
  5
7D0
330
6B
100
AcDbEntity
  8
0
 62
     2
100
AcDbLine
 10
486.8932209999998
 20
196.132375
 30
0.0
 11
486.8341329999998
 21
196.04086
 31
0.0
  0
LINE
  5
7D1
330
6B
100
AcDbEntity
  8
0
 62
     2
100
AcDbLine
 10
486.8341329999998
 20
196.04086
 30
0.0
 11
486.778144
 21
195.935466
 31
0.0
  0
LINE
  5
7D2
330
6B
100
AcDbEntity
  8
0
 62
     2
100
AcDbLine
 10
486.778144
 20
195.935466
 30
0.0
 11
486.725687
 21
195.817007
 31
0.0
  0
LINE
  5
7D3
330
6B
100
AcDbEntity
  8
0
 62
     2
100
AcDbLine
 10
486.725687
 20
195.817007
 30
0.0
 11
486.677167
 21
195.6864
 31
0.0
  0
LINE
  5
7D4
330
6B
100
AcDbEntity
  8
0
 62
     2
100
AcDbLine
 10
486.677167
 20
195.6864
 30
0.0
 11
486.6329589999998
 21
195.544654
 31
0.0
  0
LINE
  5
7D5
330
6B
100
AcDbEntity
  8
0
 62
     2
100
AcDbLine
 10
486.6329589999998
 20
195.544654
 30
0.0
 11
486.5934059999998
 21
195.392865
 31
0.0
  0
LINE
  5
7D6
330
6B
100
AcDbEntity
  8
0
 62
     2
100
AcDbLine
 10
486.5934059999998
 20
195.392865
 30
0.0
 11
486.5588119999999
 21
195.232205
 31
0.0
  0
LINE
  5
7D7
330
6B
100
AcDbEntity
  8
0
 62
     2
100
AcDbLine
 10
486.5588119999999
 20
195.232205
 30
0.0
 11
486.529445
 21
195.063916
 31
0.0
  0
LINE
  5
7D8
330
6B
100
AcDbEntity
  8
0
 62
     2
100
AcDbLine
 10
486.529445
 20
195.063916
 30
0.0
 11
486.505533
 21
194.8893
 31
0.0
  0
LINE
  5
7D9
330
6B
100
AcDbEntity
  8
0
 62
     2
100
AcDbLine
 10
486.505533
 20
194.8893
 30
0.0
 11
486.487259
 21
194.709706
 31
0.0
  0
LINE
  5
7DA
330
6B
100
AcDbEntity
  8
0
 62
     2
100
AcDbLine
 10
486.487259
 20
194.709706
 30
0.0
 11
486.4747659999999
 21
194.526522
 31
0.0
  0
LINE
  5
7DB
330
6B
100
AcDbEntity
  8
0
 62
     2
100
AcDbLine
 10
486.4747659999999
 20
194.526522
 30
0.0
 11
486.4681499999998
 21
194.341165
 31
0.0
  0
LINE
  5
7DC
330
6B
100
AcDbEntity
  8
0
 62
     2
100
AcDbLine
 10
486.4681499999998
 20
194.341165
 30
0.0
 11
486.467461
 21
194.155066
 31
0.0
  0
LINE
  5
7DD
330
6B
100
AcDbEntity
  8
0
 62
     2
100
AcDbLine
 10
486.467461
 20
194.155066
 30
0.0
 11
486.4727059999998
 21
193.969664
 31
0.0
  0
LINE
  5
7DE
330
6B
100
AcDbEntity
  8
0
 62
     2
100
AcDbLine
 10
486.4727059999998
 20
193.969664
 30
0.0
 11
486.4838429999998
 21
193.786393
 31
0.0
  0
LINE
  5
7DF
330
6B
100
AcDbEntity
  8
0
 62
     2
100
AcDbLine
 10
486.4838429999998
 20
193.786393
 30
0.0
 11
486.500787
 21
193.606668
 31
0.0
  0
LINE
  5
7E0
330
6B
100
AcDbEntity
  8
0
 62
     2
100
AcDbLine
 10
486.500787
 20
193.606668
 30
0.0
 11
486.523407
 21
193.43188
 31
0.0
  0
LINE
  5
7E1
330
6B
100
AcDbEntity
  8
0
 62
     2
100
AcDbLine
 10
486.523407
 20
193.43188
 30
0.0
 11
486.5515269999998
 21
193.263379
 31
0.0
  0
LINE
  5
7E2
330
6B
100
AcDbEntity
  8
0
 62
     2
100
AcDbLine
 10
486.5515269999998
 20
193.263379
 30
0.0
 11
486.5849309999998
 21
193.102468
 31
0.0
  0
LINE
  5
7E3
330
6B
100
AcDbEntity
  8
0
 62
     2
100
AcDbLine
 10
486.5849309999998
 20
193.102468
 30
0.0
 11
486.62336
 21
192.950389
 31
0.0
  0
LINE
  5
7E4
330
6B
100
AcDbEntity
  8
0
 62
     2
100
AcDbLine
 10
486.62336
 20
192.950389
 30
0.0
 11
486.666518
 21
192.80832
 31
0.0
  0
LINE
  5
7E5
330
6B
100
AcDbEntity
  8
0
 62
     2
100
AcDbLine
 10
486.666518
 20
192.80832
 30
0.0
 11
486.71407
 21
192.677357
 31
0.0
  0
LINE
  5
7E6
330
6B
100
AcDbEntity
  8
0
 62
     2
100
AcDbLine
 10
486.71407
 20
192.677357
 30
0.0
 11
486.7656489999998
 21
192.558514
 31
0.0
  0
LINE
  5
7E7
330
6B
100
AcDbEntity
  8
0
 62
     2
100
AcDbLine
 10
486.7656489999998
 20
192.558514
 30
0.0
 11
486.820857
 21
192.452709
 31
0.0
  0
LINE
  5
7E8
330
6B
100
AcDbEntity
  8
0
 62
     2
100
AcDbLine
 10
486.820857
 20
192.452709
 30
0.0
 11
486.879266
 21
192.360759
 31
0.0
  0
LINE
  5
7E9
330
6B
100
AcDbEntity
  8
0
 62
     2
100
AcDbLine
 10
486.879266
 20
192.360759
 30
0.0
 11
486.940425
 21
192.283375
 31
0.0
  0
LINE
  5
7EA
330
6B
100
AcDbEntity
  8
0
 62
     2
100
AcDbLine
 10
486.940425
 20
192.283375
 30
0.0
 11
487.003862
 21
192.221156
 31
0.0
  0
LINE
  5
7EB
330
6B
100
AcDbEntity
  8
0
 62
     2
100
AcDbLine
 10
487.003862
 20
192.221156
 30
0.0
 11
487.069086
 21
192.174583
 31
0.0
  0
LINE
  5
7EC
330
6B
100
AcDbEntity
  8
0
 62
     2
100
AcDbLine
 10
487.069086
 20
192.174583
 30
0.0
 11
487.135593
 21
192.144014
 31
0.0
  0
LINE
  5
7ED
330
6B
100
AcDbEntity
  8
0
 62
     2
100
AcDbLine
 10
487.135593
 20
192.144014
 30
0.0
 11
487.202869
 21
192.129688
 31
0.0
  0
LINE
  5
7EE
330
6B
100
AcDbEntity
  8
0
 62
     2
100
AcDbLine
 10
487.202869
 20
192.129688
 30
0.0
 11
487.270394
 21
192.131714
 31
0.0
  0
LINE
  5
7EF
330
6B
100
AcDbEntity
  8
0
 62
     2
100
AcDbLine
 10
487.270394
 20
192.131714
 30
0.0
 11
487.337646
 21
192.150076
 31
0.0
  0
LINE
  5
7F0
330
6B
100
AcDbEntity
  8
0
 62
     2
100
AcDbLine
 10
487.337646
 20
192.150076
 30
0.0
 11
487.4041049999998
 21
192.184634
 31
0.0
  0
LINE
  5
7F1
330
6B
100
AcDbEntity
  8
0
 62
     2
100
AcDbLine
 10
487.4041049999998
 20
192.184634
 30
0.0
 11
487.469258
 21
192.235119
 31
0.0
  0
LINE
  5
7F2
330
6B
100
AcDbEntity
  8
0
 62
     2
100
AcDbLine
 10
487.469258
 20
192.235119
 30
0.0
 11
487.5326
 21
192.301142
 31
0.0
  0
LINE
  5
7F3
330
6B
100
AcDbEntity
  8
0
 62
     2
100
AcDbLine
 10
487.5326
 20
192.301142
 30
0.0
 11
487.593643
 21
192.382191
 31
0.0
  0
LINE
  5
7F4
330
6B
100
AcDbEntity
  8
0
 62
     2
100
AcDbLine
 10
487.593643
 20
192.382191
 30
0.0
 11
487.651914
 21
192.477642
 31
0.0
  0
LINE
  5
7F5
330
6B
100
AcDbEntity
  8
0
 62
     2
100
AcDbLine
 10
487.651914
 20
192.477642
 30
0.0
 11
487.706963
 21
192.586755
 31
0.0
  0
LINE
  5
7F6
330
6B
100
AcDbEntity
  8
0
 62
     2
100
AcDbLine
 10
487.706963
 20
192.586755
 30
0.0
 11
487.758365
 21
192.708688
 31
0.0
  0
LINE
  5
7F7
330
6B
100
AcDbEntity
  8
0
 62
     2
100
AcDbLine
 10
487.758365
 20
192.708688
 30
0.0
 11
487.8057219999998
 21
192.842498
 31
0.0
  0
LINE
  5
7F8
330
6B
100
AcDbEntity
  8
0
 62
     2
100
AcDbLine
 10
487.8057219999998
 20
192.842498
 30
0.0
 11
487.8486679999999
 21
192.987151
 31
0.0
  0
LINE
  5
7F9
330
6B
100
AcDbEntity
  8
0
 62
     2
100
AcDbLine
 10
487.8486679999999
 20
192.987151
 30
0.0
 11
487.8868709999998
 21
193.141528
 31
0.0
  0
LINE
  5
7FA
330
6B
100
AcDbEntity
  8
0
 62
     2
100
AcDbLine
 10
487.8868709999998
 20
193.141528
 30
0.0
 11
487.920037
 21
193.304437
 31
0.0
  0
LINE
  5
7FB
330
6B
100
AcDbEntity
  8
0
 62
     2
100
AcDbLine
 10
487.920037
 20
193.304437
 30
0.0
 11
487.947908
 21
193.474618
 31
0.0
  0
LINE
  5
7FC
330
6B
100
AcDbEntity
  8
0
100
AcDbLine
 10
520.772051
 20
70.174481
 30
0.0
 11
519.8027179999997
 21
68.673864
 31
0.0
  0
LINE
  5
7FD
330
6B
100
AcDbEntity
  8
0
100
AcDbLine
 10
519.8027179999997
 20
68.673864
 30
0.0
 11
519.6633339999998
 21
67.21421099999999
 31
0.0
  0
LINE
  5
7FE
330
6B
100
AcDbEntity
  8
0
100
AcDbLine
 10
519.6633339999998
 20
67.21421099999999
 30
0.0
 11
520.1684309999998
 21
66.37056499999999
 31
0.0
  0
LINE
  5
7FF
330
6B
100
AcDbEntity
  8
0
100
AcDbLine
 10
520.1684309999998
 20
66.37056499999999
 30
0.0
 11
520.528102
 21
65.529677
 31
0.0
  0
LINE
  5
800
330
6B
100
AcDbEntity
  8
0
100
AcDbLine
 10
520.528102
 20
65.529677
 30
0.0
 11
520.356854
 21
64.89889699999999
 31
0.0
  0
LINE
  5
801
330
6B
100
AcDbEntity
  8
0
100
AcDbLine
 10
520.356854
 20
64.89889699999999
 30
0.0
 11
519.9447709999998
 21
64.261629
 31
0.0
  0
LINE
  5
802
330
6B
100
AcDbEntity
  8
0
100
AcDbLine
 10
522.778789
 20
70.174481
 30
0.0
 11
521.8094549999998
 21
68.673864
 31
0.0
  0
LINE
  5
803
330
6B
100
AcDbEntity
  8
0
100
AcDbLine
 10
521.8094549999998
 20
68.673864
 30
0.0
 11
521.670071
 21
67.21421099999999
 31
0.0
  0
LINE
  5
804
330
6B
100
AcDbEntity
  8
0
100
AcDbLine
 10
521.670071
 20
67.21421099999999
 30
0.0
 11
522.1751679999998
 21
66.37056499999999
 31
0.0
  0
LINE
  5
805
330
6B
100
AcDbEntity
  8
0
100
AcDbLine
 10
522.1751679999998
 20
66.37056499999999
 30
0.0
 11
522.53484
 21
65.529677
 31
0.0
  0
LINE
  5
806
330
6B
100
AcDbEntity
  8
0
100
AcDbLine
 10
522.53484
 20
65.529677
 30
0.0
 11
522.363591
 21
64.89889699999999
 31
0.0
  0
LINE
  5
807
330
6B
100
AcDbEntity
  8
0
100
AcDbLine
 10
522.363591
 20
64.89889699999999
 30
0.0
 11
521.9515079999998
 21
64.261629
 31
0.0
  0
LINE
  5
808
330
6B
100
AcDbEntity
  8
0
100
AcDbLine
 10
520.772051
 20
82.751861
 30
0.0
 11
519.8027179999997
 21
81.251245
 31
0.0
  0
LINE
  5
809
330
6B
100
AcDbEntity
  8
0
100
AcDbLine
 10
519.8027179999997
 20
81.251245
 30
0.0
 11
519.6633339999998
 21
79.79159200000002
 31
0.0
  0
LINE
  5
80A
330
6B
100
AcDbEntity
  8
0
100
AcDbLine
 10
519.6633339999998
 20
79.79159200000002
 30
0.0
 11
520.1684309999998
 21
78.947946
 31
0.0
  0
LINE
  5
80B
330
6B
100
AcDbEntity
  8
0
100
AcDbLine
 10
520.1684309999998
 20
78.947946
 30
0.0
 11
520.528102
 21
78.107058
 31
0.0
  0
LINE
  5
80C
330
6B
100
AcDbEntity
  8
0
100
AcDbLine
 10
520.528102
 20
78.107058
 30
0.0
 11
520.356854
 21
77.476278
 31
0.0
  0
LINE
  5
80D
330
6B
100
AcDbEntity
  8
0
100
AcDbLine
 10
520.356854
 20
77.476278
 30
0.0
 11
519.9447709999998
 21
76.83900899999997
 31
0.0
  0
LINE
  5
80E
330
6B
100
AcDbEntity
  8
0
100
AcDbLine
 10
522.778789
 20
82.751861
 30
0.0
 11
521.8094549999998
 21
81.251245
 31
0.0
  0
LINE
  5
80F
330
6B
100
AcDbEntity
  8
0
100
AcDbLine
 10
521.8094549999998
 20
81.251245
 30
0.0
 11
521.670071
 21
79.79159200000002
 31
0.0
  0
LINE
  5
810
330
6B
100
AcDbEntity
  8
0
100
AcDbLine
 10
521.670071
 20
79.79159200000002
 30
0.0
 11
522.1751679999998
 21
78.947946
 31
0.0
  0
LINE
  5
811
330
6B
100
AcDbEntity
  8
0
100
AcDbLine
 10
522.1751679999998
 20
78.947946
 30
0.0
 11
522.53484
 21
78.107058
 31
0.0
  0
LINE
  5
812
330
6B
100
AcDbEntity
  8
0
100
AcDbLine
 10
522.53484
 20
78.107058
 30
0.0
 11
522.363591
 21
77.476278
 31
0.0
  0
LINE
  5
813
330
6B
100
AcDbEntity
  8
0
100
AcDbLine
 10
522.363591
 20
77.476278
 30
0.0
 11
521.9515079999998
 21
76.83900899999997
 31
0.0
  0
LINE
  5
814
330
6B
100
AcDbEntity
  8
0
100
AcDbLine
 10
520.772051
 20
90.974965
 30
0.0
 11
519.8027179999997
 21
89.47434799999998
 31
0.0
  0
LINE
  5
815
330
6B
100
AcDbEntity
  8
0
100
AcDbLine
 10
519.8027179999997
 20
89.47434799999998
 30
0.0
 11
519.6633339999998
 21
88.01469499999997
 31
0.0
  0
LINE
  5
816
330
6B
100
AcDbEntity
  8
0
100
AcDbLine
 10
519.6633339999998
 20
88.01469499999997
 30
0.0
 11
520.1684309999998
 21
87.171049
 31
0.0
  0
LINE
  5
817
330
6B
100
AcDbEntity
  8
0
100
AcDbLine
 10
520.1684309999998
 20
87.171049
 30
0.0
 11
520.528102
 21
86.330161
 31
0.0
  0
LINE
  5
818
330
6B
100
AcDbEntity
  8
0
100
AcDbLine
 10
520.528102
 20
86.330161
 30
0.0
 11
520.356854
 21
85.69938099999998
 31
0.0
  0
LINE
  5
819
330
6B
100
AcDbEntity
  8
0
100
AcDbLine
 10
520.356854
 20
85.69938099999998
 30
0.0
 11
519.9447709999998
 21
85.062113
 31
0.0
  0
LINE
  5
81A
330
6B
100
AcDbEntity
  8
0
100
AcDbLine
 10
522.778789
 20
90.974965
 30
0.0
 11
521.8094549999998
 21
89.47434799999998
 31
0.0
  0
LINE
  5
81B
330
6B
100
AcDbEntity
  8
0
100
AcDbLine
 10
521.8094549999998
 20
89.47434799999998
 30
0.0
 11
521.670071
 21
88.01469499999997
 31
0.0
  0
LINE
  5
81C
330
6B
100
AcDbEntity
  8
0
100
AcDbLine
 10
521.670071
 20
88.01469499999997
 30
0.0
 11
522.1751679999998
 21
87.171049
 31
0.0
  0
LINE
  5
81D
330
6B
100
AcDbEntity
  8
0
100
AcDbLine
 10
522.1751679999998
 20
87.171049
 30
0.0
 11
522.53484
 21
86.330161
 31
0.0
  0
LINE
  5
81E
330
6B
100
AcDbEntity
  8
0
100
AcDbLine
 10
522.53484
 20
86.330161
 30
0.0
 11
522.363591
 21
85.69938099999998
 31
0.0
  0
LINE
  5
81F
330
6B
100
AcDbEntity
  8
0
100
AcDbLine
 10
522.363591
 20
85.69938099999998
 30
0.0
 11
521.9515079999998
 21
85.062113
 31
0.0
  0
LINE
  5
820
330
6B
100
AcDbEntity
  8
0
100
AcDbLine
 10
384.755929
 20
100.426699
 30
0.0
 11
384.755929
 21
86.33628100000001
 31
0.0
  0
LINE
  5
821
330
6B
100
AcDbEntity
  8
0
100
AcDbLine
 10
464.755929
 20
100.426699
 30
0.0
 11
464.755929
 21
86.33628100000001
 31
0.0
  0
LINE
  5
822
330
6B
100
AcDbEntity
  8
0
100
AcDbLine
 10
387.255929
 20
87.58628100000001
 30
0.0
 11
462.2559289999999
 21
87.58628100000001
 31
0.0
  0
LINE
  5
826
330
6B
100
AcDbEntity
  8
0
100
AcDbLine
 10
494.746249
 20
100.676699
 30
0.0
 11
480.3352429999997
 21
100.676699
 31
0.0
  0
LINE
  5
827
330
6B
100
AcDbEntity
  8
0
100
AcDbLine
 10
494.746249
 20
131.676699
 30
0.0
 11
480.3352429999998
 21
131.676699
 31
0.0
  0
LINE
  5
828
330
6B
100
AcDbEntity
  8
0
100
AcDbLine
 10
481.5852429999997
 20
103.176699
 30
0.0
 11
481.5852429999998
 21
129.176699
 31
0.0
  0
LINE
  5
82C
330
6B
100
AcDbEntity
  8
0
100
AcDbLine
 10
494.996249
 20
131.926699
 30
0.0
 11
494.996249
 21
142.906505
 31
0.0
  0
LINE
  5
82D
330
6B
100
AcDbEntity
  8
0
100
AcDbLine
 10
574.996249
 20
131.926699
 30
0.0
 11
574.996249
 21
142.906505
 31
0.0
  0
LINE
  5
82E
330
6B
100
AcDbEntity
  8
0
100
AcDbLine
 10
497.496249
 20
141.656505
 30
0.0
 11
572.496249
 21
141.656505
 31
0.0
  0
TEXT
  5
832
330
6B
100
AcDbEntity
  8
0
  6
Continuous
 62
     4
100
AcDbText
 10
422.5059289999999
 20
88.21128100000001
 30
0.0
 40
3.0
  1
80
100
AcDbText
  0
LINE
  5
833
330
6B
100
AcDbEntity
  8
0
  6
ByBlock
 62
     0
370
    -2
100
AcDbLine
 10
462.2559289999999
 20
88.25615350000001
 30
0.0
 11
464.755929
 21
87.58628100000001
 31
0.0
  0
LINE
  5
834
330
6B
100
AcDbEntity
  8
0
  6
ByBlock
 62
     0
370
    -2
100
AcDbLine
 10
464.755929
 20
87.58628100000001
 30
0.0
 11
462.2559289999999
 21
86.91640850000002
 31
0.0
  0
LINE
  5
835
330
6B
100
AcDbEntity
  8
0
  6
ByBlock
 62
     0
370
    -2
100
AcDbLine
 10
464.755929
 20
87.58628100000001
 30
0.0
 11
462.2559289999999
 21
87.58628100000001
 31
0.0
  0
LINE
  5
836
330
6B
100
AcDbEntity
  8
0
  6
ByBlock
 62
     0
370
    -2
100
AcDbLine
 10
387.255929
 20
86.91640850000002
 30
0.0
 11
384.755929
 21
87.58628100000001
 31
0.0
  0
LINE
  5
837
330
6B
100
AcDbEntity
  8
0
  6
ByBlock
 62
     0
370
    -2
100
AcDbLine
 10
384.755929
 20
87.58628100000001
 30
0.0
 11
387.255929
 21
88.25615350000001
 31
0.0
  0
LINE
  5
838
330
6B
100
AcDbEntity
  8
0
  6
ByBlock
 62
     0
370
    -2
100
AcDbLine
 10
384.755929
 20
87.58628100000001
 30
0.0
 11
387.255929
 21
87.58628100000001
 31
0.0
  0
TEXT
  5
839
330
6B
100
AcDbEntity
  8
0
  6
Continuous
 62
     4
100
AcDbText
 10
480.9602429999997
 20
114.176699
 30
0.0
 40
3.0
  1
31
 50
90.0
100
AcDbText
  0
LINE
  5
83A
330
6B
100
AcDbEntity
  8
0
  6
ByBlock
 62
     0
370
    -2
100
AcDbLine
 10
480.9153704999998
 20
129.176699
 30
0.0
 11
481.5852429999998
 21
131.676699
 31
0.0
  0
LINE
  5
83B
330
6B
100
AcDbEntity
  8
0
  6
ByBlock
 62
     0
370
    -2
100
AcDbLine
 10
481.5852429999998
 20
131.676699
 30
0.0
 11
482.2551154999998
 21
129.176699
 31
0.0
  0
LINE
  5
83C
330
6B
100
AcDbEntity
  8
0
  6
ByBlock
 62
     0
370
    -2
100
AcDbLine
 10
481.5852429999998
 20
131.676699
 30
0.0
 11
481.5852429999998
 21
129.176699
 31
0.0
  0
LINE
  5
83D
330
6B
100
AcDbEntity
  8
0
  6
ByBlock
 62
     0
370
    -2
100
AcDbLine
 10
482.2551154999997
 20
103.176699
 30
0.0
 11
481.5852429999997
 21
100.676699
 31
0.0
  0
LINE
  5
83E
330
6B
100
AcDbEntity
  8
0
  6
ByBlock
 62
     0
370
    -2
100
AcDbLine
 10
481.5852429999997
 20
100.676699
 30
0.0
 11
480.9153704999998
 21
103.176699
 31
0.0
  0
LINE
  5
83F
330
6B
100
AcDbEntity
  8
0
  6
ByBlock
 62
     0
370
    -2
100
AcDbLine
 10
481.5852429999997
 20
100.676699
 30
0.0
 11
481.5852429999997
 21
103.176699
 31
0.0
  0
TEXT
  5
840
330
6B
100
AcDbEntity
  8
0
  6
Continuous
 62
     4
100
AcDbText
 10
532.746249
 20
142.281505
 30
0.0
 40
3.0
  1
80
100
AcDbText
  0
LINE
  5
841
330
6B
100
AcDbEntity
  8
0
  6
ByBlock
 62
     0
370
    -2
100
AcDbLine
 10
572.496249
 20
142.3263775
 30
0.0
 11
574.996249
 21
141.656505
 31
0.0
  0
LINE
  5
842
330
6B
100
AcDbEntity
  8
0
  6
ByBlock
 62
     0
370
    -2
100
AcDbLine
 10
574.996249
 20
141.656505
 30
0.0
 11
572.496249
 21
140.9866325
 31
0.0
  0
LINE
  5
843
330
6B
100
AcDbEntity
  8
0
  6
ByBlock
 62
     0
370
    -2
100
AcDbLine
 10
574.996249
 20
141.656505
 30
0.0
 11
572.496249
 21
141.656505
 31
0.0
  0
LINE
  5
844
330
6B
100
AcDbEntity
  8
0
  6
ByBlock
 62
     0
370
    -2
100
AcDbLine
 10
497.496249
 20
140.9866325
 30
0.0
 11
494.996249
 21
141.656505
 31
0.0
  0
LINE
  5
845
330
6B
100
AcDbEntity
  8
0
  6
ByBlock
 62
     0
370
    -2
100
AcDbLine
 10
494.996249
 20
141.656505
 30
0.0
 11
497.496249
 21
142.3263775
 31
0.0
  0
LINE
  5
846
330
6B
100
AcDbEntity
  8
0
  6
ByBlock
 62
     0
370
    -2
100
AcDbLine
 10
494.996249
 20
141.656505
 30
0.0
 11
497.496249
 21
141.656505
 31
0.0
  0
ENDSEC
  0
SECTION
  2
OBJECTS
  0
DICTIONARY
  5
C
330
0
100
AcDbDictionary
281
     1
  3
ACAD_2007HEADERVARS_RT
350
84B
  3
ACAD_COLOR
350
62
  3
ACAD_GROUP
350
D
  3
ACAD_LAYOUT
350
61
  3
ACAD_MATERIAL
350
10
  3
ACAD_MLEADERSTYLE
350
65
  3
ACAD_MLINESTYLE
350
5E
  3
ACAD_PLOTSETTINGS
350
60
  3
ACAD_PLOTSTYLENAME
350
E
  3
ACAD_SCALELIST
350
42
  3
ACAD_TABLESTYLE
350
63
  3
ACAD_VISUALSTYLE
350
29
  3
ACDB_RECOMPOSE_DATA
350
849
  3
AcDbVariableDictionary
350
53A
  3
DWGPROPS
350
84A
  0
DICTIONARY
  5
380
330
2
100
AcDbDictionary
280
     1
281
     1
  3
ACAD_LAYERSTATES
360
381
  0
DICTIONARY
  5
538
330
54
100
AcDbDictionary
280
     1
281
     1
  3
ADSK_XREC_LAYER_RECONCILED
360
539
  0
DICTIONARY
  5
7BB
330
6B
100
AcDbDictionary
280
     1
281
     1
  3
ACAD_SORTENTS
360
7BC
  0
DICTIONARY
  5
50F
330
2B2
100
AcDbDictionary
280
     1
281
     1
  3
AcDbContextDataManager
360
510
  0
DICTIONARY
  5
84B
102
{ACAD_REACTORS
330
C
102
}
330
C
100
AcDbDictionary
281
     1
  3
DIMARCSYM
350
84D
  3
DIMFXL
350
84C
  3
DIMJOGANG
350
84E
  0
DICTIONARY
  5
62
102
{ACAD_REACTORS
330
C
102
}
330
C
100
AcDbDictionary
281
     1
  0
DICTIONARY
  5
D
102
{ACAD_REACTORS
330
C
102
}
330
C
100
AcDbDictionary
281
     1
  0
DICTIONARY
  5
61
102
{ACAD_REACTORS
330
C
102
}
330
C
100
AcDbDictionary
281
     1
  3
Model
350
6E
  3
レイアウト1
350
6A
  0
DICTIONARY
  5
10
102
{ACAD_REACTORS
330
C
102
}
330
C
100
AcDbDictionary
281
     1
  3
ByBlock
350
19
  3
ByLayer
350
11
  3
Global
350
21
  0
DICTIONARY
  5
65
102
{ACAD_REACTORS
330
C
102
}
330
C
100
AcDbDictionary
281
     1
  3
Standard
350
66
  0
DICTIONARY
  5
5E
102
{ACAD_REACTORS
330
C
102
}
330
C
100
AcDbDictionary
281
     1
  3
Standard
350
5F
  0
DICTIONARY
  5
60
102
{ACAD_REACTORS
330
C
102
}
330
C
100
AcDbDictionary
281
     1
  0
ACDBDICTIONARYWDFLT
  5
E
102
{ACAD_REACTORS
330
C
102
}
330
C
100
AcDbDictionary
281
     1
  3
Normal
350
F
100
AcDbDictionaryWithDefault
340
F
  0
DICTIONARY
  5
42
102
{ACAD_REACTORS
330
C
102
}
330
C
100
AcDbDictionary
281
     1
  3
A0
350
43
  3
A1
350
44
  3
A2
350
45
  3
A3
350
46
  3
A4
350
47
  3
A5
350
48
  3
A6
350
49
  3
A7
350
4A
  3
A8
350
4B
  3
A9
350
4C
  3
B0
350
4D
  3
B1
350
4E
  3
B2
350
4F
  3
B3
350
50
  3
B4
350
51
  3
B5
350
52
  3
B6
350
53
  0
DICTIONARY
  5
63
102
{ACAD_REACTORS
330
C
102
}
330
C
100
AcDbDictionary
281
     1
  3
Standard
350
64
  3
部品表
350
638
  0
DICTIONARY
  5
29
102
{ACAD_REACTORS
330
C
102
}
330
C
100
AcDbDictionary
281
     1
  3
2dWireframe
350
2F
  3
3dWireframe
350
37D
  3
Basic
350
2E
  3
Brighten
350
35
  3
ColorChange
350
39
  3
Conceptual
350
32
  3
Dim
350
34
  3
EdgeColorOff
350
41
  3
Facepattern
350
38
  3
Flat
350
2A
  3
FlatWithEdges
350
2B
  3
Gouraud
350
2C
  3
GouraudWithEdges
350
2D
  3
Hidden
350
31
  3
JitterOff
350
3F
  3
Linepattern
350
37
  3
OverhangOff
350
40
  3
Realistic
350
33
  3
Shaded
350
3E
  3
Shaded with edges
350
3D
  3
Shades of Gray
350
3A
  3
Sketchy
350
3B
  3
Thicken
350
36
  3
Wireframe
350
30
  3
X-Ray
350
3C
  0
XRECORD
  5
849
102
{ACAD_REACTORS
330
C
102
}
330
C
100
AcDbXrecord
280
     1
 90
        1
330
64
330
638
  0
DICTIONARY
  5
53A
102
{ACAD_REACTORS
330
C
102
}
330
C
100
AcDbDictionary
281
     1
  3
CANNOSCALE
350
53D
  3
CMLEADERSTYLE
350
53C
  3
CTABLESTYLE
350
53B
  3
DIMASSOC
350
540
  3
INDEXCTL
350
53F
  3
SORTENTS
350
53E
  3
XCLIPFRAME
350
778
  0
XRECORD
  5
84A
102
{ACAD_REACTORS
330
C
102
}
330
C
100
AcDbXrecord
280
     1
  1
DWGPROPS COOKIE
  2

  3

  4

  6

  7

  8
imamura
  9

300
=
301
=
302
=
303
=
304
=
305
=
306
=
307
=
308
=
309
=
 40
0.0156053356481482
 41
2456338.594394722
 42
2456855.579265336
  1

 90
        0
  0
DICTIONARY
  5
381
102
{ACAD_REACTORS
330
380
102
}
330
380
100
AcDbDictionary
281
     1
  0
XRECORD
  5
539
102
{ACAD_REACTORS
330
538
102
}
330
538
100
AcDbXrecord
280
     1
290
     1
  0
SORTENTSTABLE
  5
7BC
102
{ACAD_REACTORS
330
7BB
102
}
330
7BB
100
AcDbSortentsTable
330
6B
331
2B0
  5
80A
331
7C8
  5
2C1
331
2C1
  5
81B
331
7D9
  5
2D2
331
2D2
  5
82C
331
7EA
  5
3C0
331
7FB
  5
7C2
331
3BB
  5
838
331
1C3
  5
20E
331
1D4
  5
261
331
1E5
  5
272
331
805
  5
1D2
331
1F6
  5
283
331
816
  5
1BF
331
107
  5
12E
331
827
  5
CF
331
200
  5
28D
331
118
  5
179
331
C0
  5
E7
331
838
  5
DD
331
211
  5
2B0
331
129
  5
18E
331
D1
  5
F8
331
262
  5
7CC
331
284
  5
7EE
331
273
  5
7DD
331
F3
  5
11A
331
295
  5
7FF
331
16D
  5
1E1
331
E2
  5
109
331
7C9
  5
2C2
331
2B1
  5
80B
331
189
  5
1F5
331
2C2
  5
81C
331
7DA
  5
2D3
331
7EB
  5
3C1
331
2D3
  5
82D
331
BB
  5
E2
331
3BC
  5
839
331
1C4
  5
20F
331
7FC
  5
1D5
331
1D5
  5
262
331
1E6
  5
273
331
806
  5
1D3
331
1F7
  5
284
331
817
  5
1C0
331
108
  5
12F
331
828
  5
D0
331
201
  5
28E
331
119
  5
17A
331
C1
  5
E8
331
839
  5
D7
331
212
  5
2B1
331
12A
  5
18F
331
D2
  5
F9
331
263
  5
7CD
331
285
  5
7EF
331
274
  5
7DE
331
F4
  5
11B
331
296
  5
800
331
16E
  5
1E2
331
E3
  5
10A
331
7B9
  5
808
331
2A8
  5
805
331
7CA
  5
2C3
331
179
  5
1E9
331
2B2
  5
80C
331
18A
  5
1F6
331
2C3
  5
81D
331
7DB
  5
2D4
331
7EC
  5
3C2
331
2D4
  5
82E
331
BC
  5
E3
331
3BD
  5
83A
331
1C5
  5
210
331
7FD
  5
1D6
331
1D6
  5
263
331
1E7
  5
274
331
807
  5
1D4
331
818
  5
1C1
331
109
  5
130
331
202
  5
28F
331
11A
  5
17B
331
C2
  5
E9
331
83A
  5
D4
331
213
  5
2B2
331
12B
  5
190
331
D3
  5
FA
331
264
  5
7CE
331
286
  5
7F0
331
275
  5
7DF
331
F5
  5
11C
331
297
  5
801
331
16F
  5
1E3
331
E4
  5
10B
331
7BA
  5
809
331
2A9
  5
806
331
170
  5
1E4
331
7CB
  5
2C4
331
17A
  5
1EA
331
2B3
  5
80D
331
18B
  5
1F7
331
2C4
  5
81E
331
7DC
  5
2D5
331
7ED
  5
3C3
331
2D5
  5
82F
331
1B5
  5
205
331
BD
  5
E4
331
3BE
  5
83B
331
1C6
  5
211
331
7FE
  5
1D7
331
1D7
  5
264
331
1E8
  5
275
331
808
  5
1C9
331
819
  5
1C2
331
10A
  5
167
331
203
  5
290
331
11B
  5
17C
331
C3
  5
EA
331
83B
  5
D5
331
214
  5
2B3
331
12C
  5
191
331
D4
  5
FB
331
265
  5
7CF
331
E5
  5
10C
331
287
  5
7F1
331
276
  5
7E0
331
F6
  5
11D
331
288
  5
7F2
331
2AA
  5
807
331
171
  5
1E5
331
7CC
  5
2C5
331
17B
  5
1EB
331
2B4
  5
80E
331
18C
  5
1F8
331
2C5
  5
81F
331
7DD
  5
2D6
331
7EE
  5
3C4
331
2D6
  5
830
331
BE
  5
E5
331
3BF
  5
83C
331
1C7
  5
212
331
7FF
  5
1D8
331
1D8
  5
265
331
1E9
  5
276
331
809
  5
1CA
331
81A
  5
1A7
331
10B
  5
168
331
204
  5
291
331
11C
  5
17D
331
C4
  5
EB
331
83C
  5
D6
331
215
  5
2B4
331
12D
  5
192
331
D5
  5
FC
331
266
  5
7D0
331
E6
  5
10D
331
277
  5
7E1
331
F7
  5
11E
331
289
  5
7F3
331
278
  5
7E2
331
F8
  5
11F
331
7CD
  5
2C6
331
17C
  5
1EC
331
172
  5
1E6
331
2B5
  5
80F
331
18D
  5
1F9
331
2C6
  5
820
331
7DE
  5
2D7
331
7EF
  5
3C5
331
2D7
  5
831
331
BF
  5
E6
331
3C0
  5
83D
331
1C8
  5
213
331
1D9
  5
266
331
1EA
  5
277
331
80A
  5
1CB
331
81B
  5
1A9
331
10C
  5
169
331
205
  5
292
331
11D
  5
17E
331
C5
  5
EC
331
83D
  5
D1
331
216
  5
2B5
331
12E
  5
193
331
D6
  5
FD
331
267
  5
7D1
331
E7
  5
10E
331
82C
  5
BB
331
268
  5
7D2
331
E8
  5
10F
331
28A
  5
7F4
331
279
  5
7E3
331
F9
  5
120
331
7BD
  5
2B6
331
7CE
  5
2C7
331
17D
  5
1ED
331
2B6
  5
810
331
18E
  5
1FA
331
7DF
  5
3B5
331
2C7
  5
821
331
1A7
  5
202
331
7F0
  5
3C6
331
3C1
  5
83E
331
1C9
  5
214
331
1DA
  5
267
331
1EB
  5
278
331
80B
  5
1CC
331
81C
  5
1AF
331
10D
  5
16A
331
206
  5
293
331
11E
  5
17F
331
C6
  5
ED
331
83E
  5
D2
331
12F
  5
194
331
D7
  5
FE
331
82D
  5
BC
331
130
  5
195
331
D8
  5
FF
331
269
  5
7D3
331
E9
  5
110
331
28B
  5
7F5
331
27A
  5
7E4
331
FA
  5
121
331
7BE
  5
2B7
331
7CF
  5
2C8
331
17E
  5
1EE
331
2B7
  5
811
331
18F
  5
1FB
331
2C8
  5
822
331
7E0
  5
3B6
331
7F1
  5
3C7
331
3C2
  5
83F
331
1CA
  5
215
331
1B9
  5
206
331
1DB
  5
268
331
1EC
  5
279
331
80C
  5
1CD
331
81D
  5
1B5
331
10E
  5
16B
331
207
  5
294
331
11F
  5
180
331
C7
  5
EE
331
83F
  5
D3
331
82E
  5
BD
331
208
  5
295
331
120
  5
181
331
C8
  5
EF
331
840
  5
CD
331
259
  5
7C3
331
D9
  5
100
331
26A
  5
7D4
331
EA
  5
111
331
28C
  5
7F6
331
27B
  5
7E5
331
FB
  5
122
331
7BF
  5
2B8
331
175
  5
1E7
331
7D0
  5
2C9
331
17F
  5
1EF
331
2B8
  5
812
331
190
  5
1FC
331
7E1
  5
3B7
331
2C9
  5
823
331
1A9
  5
203
331
7F2
  5
3C8
331
3C3
  5
840
331
1CB
  5
216
331
1BA
  5
207
331
1DC
  5
269
331
1ED
  5
27A
331
80D
  5
1CE
331
10F
  5
16C
331
81E
  5
1B9
331
1F8
  5
285
331
110
  5
16D
331
209
  5
296
331
121
  5
182
331
C9
  5
F0
331
841
  5
C7
331
25A
  5
7C4
331
DA
  5
101
331
26B
  5
7D5
331
EB
  5
112
331
28D
  5
7F7
331
27C
  5
7E6
331
FC
  5
123
331
7C0
  5
2B9
331
7D1
  5
2CA
331
180
  5
1F0
331
2B9
  5
813
331
191
  5
1FD
331
2CA
  5
824
331
7E2
  5
3B8
331
7F3
  5
3C9
331
3C4
  5
841
331
1CC
  5
259
331
1BB
  5
208
331
1DD
  5
26A
331
1EE
  5
27B
331
80E
  5
1C3
331
81F
  5
1BA
331
1F9
  5
286
331
111
  5
16E
331
100
  5
127
331
820
  5
D8
331
20A
  5
297
331
122
  5
183
331
CA
  5
F1
331
842
  5
C8
331
25B
  5
7C5
331
26C
  5
7D6
331
EC
  5
113
331
28E
  5
7F8
331
27D
  5
7E7
331
FD
  5
124
331
29F
  5
802
331
177
  5
1E8
331
7C1
  5
2BA
331
7D2
  5
2CB
331
181
  5
1F1
331
2BA
  5
814
331
192
  5
1FE
331
2CB
  5
825
331
7E3
  5
3B9
331
7F4
  5
7B9
331
DB
  5
102
331
3C5
  5
842
331
1CD
  5
25A
331
1DE
  5
26B
331
1EF
  5
27C
331
80F
  5
1C4
331
1F0
  5
27D
331
810
  5
1C5
331
101
  5
128
331
821
  5
D9
331
1FA
  5
287
331
112
  5
16F
331
832
  5
E1
331
20B
  5
29F
331
123
  5
184
331
CB
  5
F2
331
843
  5
C9
331
25C
  5
7C6
331
DC
  5
103
331
26D
  5
7D7
331
ED
  5
114
331
27E
  5
7E8
331
FE
  5
125
331
2A0
  5
803
331
28F
  5
7F9
331
7C2
  5
2BB
331
7D3
  5
2CC
331
182
  5
1F2
331
2BB
  5
815
331
193
  5
1FF
331
2CC
  5
826
331
7E4
  5
3BA
331
167
  5
1DB
331
3B5
  5
832
331
7F5
  5
7BA
331
3C6
  5
843
331
1CE
  5
25B
331
1DF
  5
26C
331
1E0
  5
26D
331
800
  5
1D9
331
1F1
  5
27E
331
811
  5
1C6
331
102
  5
129
331
822
  5
DA
331
1FB
  5
288
331
113
  5
170
331
833
  5
DE
331
20C
  5
2A0
331
124
  5
189
331
CC
  5
F3
331
844
  5
C1
331
25D
  5
7C7
331
DD
  5
104
331
26E
  5
7D8
331
EE
  5
115
331
27F
  5
7E9
331
FF
  5
126
331
2A1
  5
804
331
290
  5
7FA
331
7C3
  5
2BC
331
7D4
  5
2CD
331
183
  5
1F3
331
2BC
  5
816
331
194
  5
200
331
2CD
  5
827
331
7E5
  5
3BB
331
168
  5
1DC
331
7F6
  5
7BD
331
3B6
  5
833
331
1BE
  5
209
331
3C7
  5
844
331
1CF
  5
25C
331
3C8
  5
845
331
1D0
  5
25D
331
1E1
  5
26E
331
801
  5
1DA
331
1F2
  5
27F
331
812
  5
1C7
331
103
  5
12A
331
1FC
  5
289
331
114
  5
171
331
834
  5
DF
331
20D
  5
2A1
331
125
  5
18A
331
CD
  5
F4
331
845
  5
C2
331
25E
  5
7C8
331
DE
  5
105
331
280
  5
7EA
331
26F
  5
7D9
331
EF
  5
116
331
291
  5
7FB
331
169
  5
1DD
331
7D5
  5
2CE
331
184
  5
1F4
331
2BD
  5
817
331
195
  5
201
331
2CE
  5
828
331
7E6
  5
3BC
331
7F7
  5
7BE
331
7C4
  5
2BD
331
3B7
  5
834
331
1BF
  5
20A
331
7F8
  5
7BF
331
3B8
  5
835
331
1C0
  5
20B
331
3C9
  5
846
331
1D1
  5
25E
331
1E2
  5
26F
331
802
  5
1CF
331
1F3
  5
280
331
813
  5
1C8
331
104
  5
12B
331
1FD
  5
28A
331
115
  5
172
331
835
  5
E0
331
20E
  5
2A8
331
126
  5
18B
331
CE
  5
F5
331
846
  5
C3
331
25F
  5
7C9
331
DF
  5
106
331
281
  5
7EB
331
270
  5
7DA
331
F0
  5
117
331
292
  5
7FC
331
16A
  5
1DE
331
2BE
  5
818
331
7D6
  5
2CF
331
7C5
  5
2BE
331
2CF
  5
829
331
1AF
  5
204
331
7E7
  5
3BD
331
2D0
  5
82A
331
7E8
  5
3BE
331
7F9
  5
7C0
331
3B9
  5
836
331
1C1
  5
20C
331
1D2
  5
25F
331
1E3
  5
270
331
803
  5
1D0
331
1F4
  5
281
331
814
  5
1BB
331
105
  5
12C
331
1FE
  5
28B
331
116
  5
175
331
836
  5
DB
331
20F
  5
2A9
331
127
  5
18C
331
CF
  5
F6
331
260
  5
7CA
331
282
  5
7EC
331
271
  5
7DB
331
F1
  5
118
331
293
  5
7FD
331
16B
  5
1DF
331
2BF
  5
819
331
7D7
  5
2D0
331
7C6
  5
2BF
331
E0
  5
107
331
2C0
  5
81A
331
7D8
  5
2D1
331
2D1
  5
82B
331
7E9
  5
3BF
331
7FA
  5
7C1
331
3BA
  5
837
331
1C2
  5
20D
331
1D3
  5
260
331
1E4
  5
271
331
804
  5
1D1
331
1F5
  5
282
331
815
  5
1BE
331
106
  5
12D
331
826
  5
CE
331
1FF
  5
28C
331
117
  5
177
331
837
  5
DC
331
210
  5
2AA
331
128
  5
18D
331
D0
  5
F7
331
261
  5
7CB
331
283
  5
7ED
331
272
  5
7DC
331
F2
  5
119
331
294
  5
7FE
331
16C
  5
1E0
331
7C7
  5
2C0
331
E1
  5
108
  0
DICTIONARY
  5
510
102
{ACAD_REACTORS
330
50F
102
}
330
50F
100
AcDbDictionary
281
     1
  3
ACDB_ANNOTATIONSCALES
350
511
  0
XRECORD
  5
84D
102
{ACAD_REACTORS
330
84B
102
}
330
84B
100
AcDbXrecord
280
     1
 70
     2
  0
XRECORD
  5
84C
102
{ACAD_REACTORS
330
84B
102
}
330
84B
100
AcDbXrecord
280
     1
 40
1.25
  0
XRECORD
  5
84E
102
{ACAD_REACTORS
330
84B
102
}
330
84B
100
AcDbXrecord
280
     1
 40
1.570796326794896
  0
LAYOUT
  5
6E
102
{ACAD_XDICTIONARY
360
882
102
}
102
{ACAD_REACTORS
330
61
102
}
330
61
100
AcDbPlotSettings
  1

  2
FX DP 205
  4

  6

 40
0.0
 41
0.0
 42
0.0
 43
0.0
 44
0.0
 45
0.0
 46
0.0
 47
0.0
 48
0.0
 49
0.0
140
0.0
141
0.0
142
1.0
143
1.0
 70
  1712
 72
     0
 73
     0
 74
     0
  7

 75
     0
147
1.0
148
0.0
149
0.0
100
AcDbLayout
  1
Model
 70
     1
 71
     0
 10
0.0
 20
0.0
 11
12.0
 21
9.0
 12
0.0
 22
0.0
 32
0.0
 14
0.0
 24
0.0
 34
0.0
 15
0.0
 25
0.0
 35
0.0
146
0.0
 13
0.0
 23
0.0
 33
0.0
 16
1.0
 26
0.0
 36
0.0
 17
0.0
 27
1.0
 37
0.0
 76
     0
330
6B
331
8B
  0
LAYOUT
  5
6A
102
{ACAD_XDICTIONARY
360
880
102
}
102
{ACAD_REACTORS
330
61
102
}
330
61
100
AcDbPlotSettings
  1

  2
FX DP 205
  4

  6

 40
0.0
 41
0.0
 42
0.0
 43
0.0
 44
0.0
 45
0.0
 46
0.0
 47
0.0
 48
0.0
 49
0.0
140
0.0
141
0.0
142
1.0
143
1.0
 70
   688
 72
     0
 73
     0
 74
     5
  7

 75
    16
147
1.0
148
0.0
149
0.0
100
AcDbLayout
  1
レイアウト1
 70
     1
 71
     1
 10
0.0
 20
0.0
 11
12.0
 21
9.0
 12
0.0
 22
0.0
 32
0.0
 14
1.000000000000000E+20
 24
1.000000000000000E+20
 34
1.000000000000000E+20
 15
-1.000000000000000E+20
 25
-1.000000000000000E+20
 35
-1.000000000000000E+20
146
0.0
 13
0.0
 23
0.0
 33
0.0
 16
1.0
 26
0.0
 36
0.0
 17
0.0
 27
1.0
 37
0.0
 76
     0
330
67
  0
MATERIAL
  5
19
102
{ACAD_XDICTIONARY
360
1A
102
}
102
{ACAD_REACTORS
330
10
102
}
330
10
100
AcDbMaterial
  1
ByBlock
 72
     0
 43
0.0208333333333333
 43
0.0
 43
0.0
 43
0.0
 43
0.0
 43
0.0208333333333333
 43
0.0
 43
0.0
 43
0.0
 43
0.0
 43
1.0
 43
0.0
 43
0.0
 43
0.0
 43
0.0
 43
1.0
 77
     0
 47
0.0208333333333333
 47
0.0
 47
0.0
 47
0.0
 47
0.0
 47
0.0208333333333333
 47
0.0
 47
0.0
 47
0.0
 47
0.0
 47
1.0
 47
0.0
 47
0.0
 47
0.0
 47
0.0
 47
1.0
171
     0
 49
0.0208333333333333
 49
0.0
 49
0.0
 49
0.0
 49
0.0
 49
0.0208333333333333
 49
0.0
 49
0.0
 49
0.0
 49
0.0
 49
1.0
 49
0.0
 49
0.0
 49
0.0
 49
0.0
 49
1.0
175
     0
142
0.0208333333333333
142
0.0
142
0.0
142
0.0
142
0.0
142
0.0208333333333333
142
0.0
142
0.0
142
0.0
142
0.0
142
1.0
142
0.0
142
0.0
142
0.0
142
0.0
142
1.0
179
     0
144
0.0208333333333333
144
0.0
144
0.0
144
0.0
144
0.0
144
0.0208333333333333
144
0.0
144
0.0
144
0.0
144
0.0
144
1.0
144
0.0
144
0.0
144
0.0
144
0.0
144
1.0
147
0.0208333333333333
147
0.0
147
0.0
147
0.0
147
0.0
147
0.0208333333333333
147
0.0
147
0.0
147
0.0
147
0.0
147
1.0
147
0.0
147
0.0
147
0.0
147
0.0
147
1.0
  0
MATERIAL
  5
11
102
{ACAD_XDICTIONARY
360
12
102
}
102
{ACAD_REACTORS
330
10
102
}
330
10
100
AcDbMaterial
  1
ByLayer
 72
     0
 43
0.0208333333333333
 43
0.0
 43
0.0
 43
0.0
 43
0.0
 43
0.0208333333333333
 43
0.0
 43
0.0
 43
0.0
 43
0.0
 43
1.0
 43
0.0
 43
0.0
 43
0.0
 43
0.0
 43
1.0
 77
     0
 47
0.0208333333333333
 47
0.0
 47
0.0
 47
0.0
 47
0.0
 47
0.0208333333333333
 47
0.0
 47
0.0
 47
0.0
 47
0.0
 47
1.0
 47
0.0
 47
0.0
 47
0.0
 47
0.0
 47
1.0
171
     0
 49
0.0208333333333333
 49
0.0
 49
0.0
 49
0.0
 49
0.0
 49
0.0208333333333333
 49
0.0
 49
0.0
 49
0.0
 49
0.0
 49
1.0
 49
0.0
 49
0.0
 49
0.0
 49
0.0
 49
1.0
175
     0
142
0.0208333333333333
142
0.0
142
0.0
142
0.0
142
0.0
142
0.0208333333333333
142
0.0
142
0.0
142
0.0
142
0.0
142
1.0
142
0.0
142
0.0
142
0.0
142
0.0
142
1.0
179
     0
144
0.0208333333333333
144
0.0
144
0.0
144
0.0
144
0.0
144
0.0208333333333333
144
0.0
144
0.0
144
0.0
144
0.0
144
1.0
144
0.0
144
0.0
144
0.0
144
0.0
144
1.0
147
0.0208333333333333
147
0.0
147
0.0
147
0.0
147
0.0
147
0.0208333333333333
147
0.0
147
0.0
147
0.0
147
0.0
147
1.0
147
0.0
147
0.0
147
0.0
147
0.0
147
1.0
  0
MATERIAL
  5
21
102
{ACAD_XDICTIONARY
360
22
102
}
102
{ACAD_REACTORS
330
10
102
}
330
10
100
AcDbMaterial
  1
Global
 72
     0
 43
0.0208333333333333
 43
0.0
 43
0.0
 43
0.0
 43
0.0
 43
0.0208333333333333
 43
0.0
 43
0.0
 43
0.0
 43
0.0
 43
1.0
 43
0.0
 43
0.0
 43
0.0
 43
0.0
 43
1.0
 77
     0
 47
0.0208333333333333
 47
0.0
 47
0.0
 47
0.0
 47
0.0
 47
0.0208333333333333
 47
0.0
 47
0.0
 47
0.0
 47
0.0
 47
1.0
 47
0.0
 47
0.0
 47
0.0
 47
0.0
 47
1.0
171
     0
 49
0.0208333333333333
 49
0.0
 49
0.0
 49
0.0
 49
0.0
 49
0.0208333333333333
 49
0.0
 49
0.0
 49
0.0
 49
0.0
 49
1.0
 49
0.0
 49
0.0
 49
0.0
 49
0.0
 49
1.0
175
     0
142
0.0208333333333333
142
0.0
142
0.0
142
0.0
142
0.0
142
0.0208333333333333
142
0.0
142
0.0
142
0.0
142
0.0
142
1.0
142
0.0
142
0.0
142
0.0
142
0.0
142
1.0
179
     0
144
0.0208333333333333
144
0.0
144
0.0
144
0.0
144
0.0
144
0.0208333333333333
144
0.0
144
0.0
144
0.0
144
0.0
144
1.0
144
0.0
144
0.0
144
0.0
144
0.0
144
1.0
147
0.0208333333333333
147
0.0
147
0.0
147
0.0
147
0.0
147
0.0208333333333333
147
0.0
147
0.0
147
0.0
147
0.0
147
1.0
147
0.0
147
0.0
147
0.0
147
0.0
147
1.0
  0
MLEADERSTYLE
  5
66
102
{ACAD_REACTORS
330
65
102
}
330
65
100
AcDbMLeaderStyle
170
     2
171
     1
172
     0
 90
        2
 40
0.0
 41
0.0
173
     1
 91
-1056964608
340
5A
 92
       -2
290
     1
 42
0.09
291
     1
 43
0.36
  3
Standard
 44
0.18
300

342
55
174
     1
178
     6
175
     1
176
     0
 93
-1056964608
 45
0.18
292
     0
297
     0
 46
0.18
 94
-1056964608
 47
1.0
 49
1.0
140
1.0
293
     1
141
0.0
294
     1
177
     0
142
1.0
295
     0
296
     0
143
0.125
1001
ACAD_MLEADERVER
1070
     2
  0
MLINESTYLE
  5
5F
102
{ACAD_REACTORS
330
5E
102
}
330
5E
100
AcDbMlineStyle
  2
STANDARD
 70
     0
  3

 62
   256
 51
90.0
 52
90.0
 71
     2
 49
0.5
 62
   256
  6
BYLAYER
 49
-0.5
 62
   256
  6
BYLAYER
  0
ACDBPLACEHOLDER
  5
F
102
{ACAD_REACTORS
330
E
102
}
330
E
  0
SCALE
  5
43
102
{ACAD_REACTORS
330
42
102
}
330
42
100
AcDbScale
 70
     0
300
1:1
140
1.0
141
1.0
290
     1
  0
SCALE
  5
44
102
{ACAD_REACTORS
330
42
102
}
330
42
100
AcDbScale
 70
     0
300
1/128" = 1'-0"
140
0.0078125
141
12.0
290
     0
  0
SCALE
  5
45
102
{ACAD_REACTORS
330
42
102
}
330
42
100
AcDbScale
 70
     0
300
1/64" = 1'-0"
140
0.015625
141
12.0
290
     0
  0
SCALE
  5
46
102
{ACAD_REACTORS
330
42
102
}
330
42
100
AcDbScale
 70
     0
300
1/32" = 1'-0"
140
0.03125
141
12.0
290
     0
  0
SCALE
  5
47
102
{ACAD_REACTORS
330
42
102
}
330
42
100
AcDbScale
 70
     0
300
1/16" = 1'-0"
140
0.0625
141
12.0
290
     0
  0
SCALE
  5
48
102
{ACAD_REACTORS
330
42
102
}
330
42
100
AcDbScale
 70
     0
300
3/32" = 1'-0"
140
0.09375
141
12.0
290
     0
  0
SCALE
  5
49
102
{ACAD_REACTORS
330
42
102
}
330
42
100
AcDbScale
 70
     0
300
1/8" = 1'-0"
140
0.125
141
12.0
290
     0
  0
SCALE
  5
4A
102
{ACAD_REACTORS
330
42
102
}
330
42
100
AcDbScale
 70
     0
300
3/16" = 1'-0"
140
0.1875
141
12.0
290
     0
  0
SCALE
  5
4B
102
{ACAD_REACTORS
330
42
102
}
330
42
100
AcDbScale
 70
     0
300
1/4" = 1'-0"
140
0.25
141
12.0
290
     0
  0
SCALE
  5
4C
102
{ACAD_REACTORS
330
42
102
}
330
42
100
AcDbScale
 70
     0
300
3/8" = 1'-0"
140
0.375
141
12.0
290
     0
  0
SCALE
  5
4D
102
{ACAD_REACTORS
330
42
102
}
330
42
100
AcDbScale
 70
     0
300
1/2" = 1'-0"
140
0.5
141
12.0
290
     0
  0
SCALE
  5
4E
102
{ACAD_REACTORS
330
42
102
}
330
42
100
AcDbScale
 70
     0
300
3/4" = 1'-0"
140
0.75
141
12.0
290
     0
  0
SCALE
  5
4F
102
{ACAD_REACTORS
330
42
102
}
330
42
100
AcDbScale
 70
     0
300
1" = 1'-0"
140
1.0
141
12.0
290
     0
  0
SCALE
  5
50
102
{ACAD_REACTORS
330
42
102
}
330
42
100
AcDbScale
 70
     0
300
1-1/2" = 1'-0"
140
1.5
141
12.0
290
     0
  0
SCALE
  5
51
102
{ACAD_REACTORS
330
42
102
}
330
42
100
AcDbScale
 70
     0
300
3" = 1'-0"
140
3.0
141
12.0
290
     0
  0
SCALE
  5
52
102
{ACAD_REACTORS
330
42
102
}
330
42
100
AcDbScale
 70
     0
300
6" = 1'-0"
140
6.0
141
12.0
290
     0
  0
SCALE
  5
53
102
{ACAD_REACTORS
330
42
102
}
330
42
100
AcDbScale
 70
     0
300
1'-0" = 1'-0"
140
12.0
141
12.0
290
     0
  0
TABLESTYLE
  5
64
102
{ACAD_XDICTIONARY
360
542
102
}
102
{ACAD_REACTORS
330
63
102
}
330
63
100
AcDbTableStyle
  3
Standard
 70
     0
 71
     0
 40
0.06
 41
0.06
280
     0
281
     0
  7
STANDARD
140
0.18
170
     2
 62
     0
 63
     7
283
     0
274
    -2
284
     1
 64
     0
275
    -2
285
     1
 65
     0
276
    -2
286
     1
 66
     0
277
    -2
287
     1
 67
     0
278
    -2
288
     1
 68
     0
279
    -2
289
     1
 69
     0
  7
STANDARD
140
0.25
170
     5
 62
     0
 63
     7
283
     0
274
    -2
284
     1
 64
     0
275
    -2
285
     1
 65
     0
276
    -2
286
     1
 66
     0
277
    -2
287
     1
 67
     0
278
    -2
288
     1
 68
     0
279
    -2
289
     1
 69
     0
  7
STANDARD
140
0.18
170
     5
 62
     0
 63
     7
283
     0
274
    -2
284
     1
 64
     0
275
    -2
285
     1
 65
     0
276
    -2
286
     1
 66
     0
277
    -2
287
     1
 67
     0
278
    -2
288
     1
 68
     0
279
    -2
289
     1
 69
     0
  0
TABLESTYLE
  5
638
102
{ACAD_XDICTIONARY
360
639
102
}
102
{ACAD_REACTORS
330
63
102
}
330
63
100
AcDbTableStyle
  3
Standard
 70
     1
 71
     0
 40
1.5
 41
0.5
280
     0
281
     0
  7
高3.2
140
0.18
170
     7
 62
     3
 63
     7
283
     0
274
    -2
284
     1
 64
     3
275
    -2
285
     1
 65
     7
276
    -2
286
     1
 66
     3
277
    -2
287
     1
 67
     3
278
    -2
288
     1
 68
     7
279
    -2
289
     1
 69
     3
  7
高3.2
140
0.25
170
     8
 62
     3
 63
     7
283
     0
274
    -2
284
     1
 64
     0
275
    -2
285
     1
 65
     0
276
    -2
286
     1
 66
     0
277
    -2
287
     1
 67
     0
278
    -2
288
     1
 68
     0
279
    -2
289
     1
 69
     0
  7
高3.2
140
0.18
170
     7
 62
     3
 63
     7
283
     0
274
    -2
284
     1
 64
     3
275
    -2
285
     1
 65
     7
276
    -2
286
     1
 66
     3
277
    -2
287
     1
 67
     3
278
    -2
288
     1
 68
     7
279
    -2
289
     1
 69
     3
  0
VISUALSTYLE
  5
2F
102
{ACAD_XDICTIONARY
360
859
102
}
102
{ACAD_REACTORS
330
29
102
}
330
29
100
AcDbVisualStyle
  2

 70
     4
 71
     0
 72
     2
 73
     0
 90
        0
 40
-0.6
 41
-30.0
 62
     5
 63
     7
 74
     1
 91
        4
 64
     7
 65
   257
 75
     1
175
     1
 42
1.0
 92
        0
 66
   257
 43
1.0
 76
     1
 77
     6
 78
     2
 67
     7
 79
     5
170
     0
171
     0
290
     0
174
     0
 93
        1
 44
0.0
173
     0
291
     0
 45
0.0
1001
ACAD
1000
AcDbSavedByObjectVersion
1070
     0
  0
VISUALSTYLE
  5
37D
102
{ACAD_XDICTIONARY
360
884
102
}
102
{ACAD_REACTORS
330
29
102
}
330
29
100
AcDbVisualStyle
  2

 70
     5
 71
     0
 72
     2
 73
     1
 90
        0
 40
-0.6
 41
-30.0
 62
     5
 63
     7
 74
     1
 91
        4
 64
     7
 65
   257
 75
     1
175
     1
 42
1.0
 92
        0
 66
   257
 43
1.0
 76
     1
 77
     6
 78
     2
 67
     7
 79
     5
170
     0
171
     0
290
     0
174
     0
 93
        1
 44
0.0
173
     0
291
     0
 45
0.0
1001
ACAD
1000
AcDbSavedByObjectVersion
1070
     0
  0
VISUALSTYLE
  5
2E
102
{ACAD_XDICTIONARY
360
857
102
}
102
{ACAD_REACTORS
330
29
102
}
330
29
100
AcDbVisualStyle
  2

 70
     7
 71
     1
 72
     0
 73
     1
 90
        0
 40
-0.6
 41
-30.0
 62
     5
 63
     7
 74
     0
 91
        4
 64
     7
 65
   257
 75
     1
175
     1
 42
1.0
 92
        8
 66
     7
 43
1.0
 76
     1
 77
     6
 78
     2
 67
     7
 79
     5
170
     0
171
     0
290
     0
174
     0
 93
        1
 44
0.0
173
     0
291
     1
 45
0.0
1001
ACAD
1000
AcDbSavedByObjectVersion
1070
     0
  0
VISUALSTYLE
  5
35
102
{ACAD_XDICTIONARY
360
865
102
}
102
{ACAD_REACTORS
330
29
102
}
330
29
100
AcDbVisualStyle
  2

 70
    12
 71
     2
 72
     2
 73
     0
 90
        0
 40
-0.6
 41
-30.0
 62
     5
 63
     7
 74
     1
 91
        4
 64
     7
 65
   257
 75
     1
175
     1
 42
1.0
 92
        8
 66
     7
 43
1.0
 76
     1
 77
     6
 78
     2
 67
     7
 79
     5
170
     0
171
     0
290
     0
174
     0
 93
        1
 44
50.0
173
     0
291
     1
 45
0.0
1001
ACAD
1000
AcDbSavedByObjectVersion
1070
     0
  0
VISUALSTYLE
  5
39
102
{ACAD_XDICTIONARY
360
86D
102
}
102
{ACAD_REACTORS
330
29
102
}
330
29
100
AcDbVisualStyle
  2

 70
    16
 71
     2
 72
     2
 73
     3
 90
        0
 40
-0.6
 41
-30.0
 62
     5
 63
     8
 74
     1
 91
        4
 64
     7
 65
   257
 75
     1
175
     1
 42
1.0
 92
        8
 66
     8
 43
1.0
 76
     1
 77
     6
 78
     2
 67
     7
 79
     5
170
     0
171
     0
290
     0
174
     0
 93
        1
 44
0.0
173
     0
291
     1
 45
0.0
1001
ACAD
1000
AcDbSavedByObjectVersion
1070
     0
  0
VISUALSTYLE
  5
32
102
{ACAD_XDICTIONARY
360
85F
102
}
102
{ACAD_REACTORS
330
29
102
}
330
29
100
AcDbVisualStyle
  2

 70
     9
 71
     3
 72
     2
 73
     0
 90
        0
 40
-0.6
 41
-30.0
 62
     5
 63
     7
 74
     2
 91
        2
 64
     7
 65
   257
 75
     1
175
     1
 42
179.0
 92
        8
 66
     7
 43
1.0
 76
     1
 77
     6
 78
     2
 67
     7
 79
     3
170
     0
171
     0
290
     0
174
     0
 93
        1
 44
0.0
173
     0
291
     0
 45
0.0
1001
ACAD
1000
AcDbSavedByObjectVersion
1070
     0
  0
VISUALSTYLE
  5
34
102
{ACAD_XDICTIONARY
360
863
102
}
102
{ACAD_REACTORS
330
29
102
}
330
29
100
AcDbVisualStyle
  2

 70
    11
 71
     2
 72
     2
 73
     0
 90
        0
 40
-0.6
 41
-30.0
 62
     5
 63
     7
 74
     1
 91
        4
 64
     7
 65
   257
 75
     1
175
     1
 42
1.0
 92
        8
 66
     7
 43
1.0
 76
     1
 77
     6
 78
     2
 67
     7
 79
     5
170
     0
171
     0
290
     0
174
     0
 93
        1
 44
-50.0
173
     0
291
     1
 45
0.0
1001
ACAD
1000
AcDbSavedByObjectVersion
1070
     0
  0
VISUALSTYLE
  5
41
102
{ACAD_XDICTIONARY
360
87D
102
}
102
{ACAD_REACTORS
330
29
102
}
330
29
100
AcDbVisualStyle
  2

 70
    22
 71
     2
 72
     2
 73
     0
 90
        0
 40
-0.6
 41
-30.0
 62
     5
 63
     7
 74
     1
 91
        4
 64
     7
 65
   257
 75
     1
175
     1
 42
1.0
 92
        8
 66
     7
 43
1.0
 76
     1
 77
     6
 78
     2
 67
     7
 79
     5
170
     0
171
     0
290
     0
174
     0
 93
        1
 44
0.0
173
     0
291
     1
 45
0.0
1001
ACAD
1000
AcDbSavedByObjectVersion
1070
     0
  0
VISUALSTYLE
  5
38
102
{ACAD_XDICTIONARY
360
86B
102
}
102
{ACAD_REACTORS
330
29
102
}
330
29
100
AcDbVisualStyle
  2

 70
    15
 71
     2
 72
     2
 73
     0
 90
        0
 40
-0.6
 41
-30.0
 62
     5
 63
     7
 74
     1
 91
        4
 64
     7
 65
   257
 75
     1
175
     1
 42
1.0
 92
        8
 66
     7
 43
1.0
 76
     1
 77
     6
 78
     2
 67
     7
 79
     5
170
     0
171
     0
290
     0
174
     0
 93
        1
 44
0.0
173
     0
291
     1
 45
0.0
1001
ACAD
1000
AcDbSavedByObjectVersion
1070
     0
  0
VISUALSTYLE
  5
2A
102
{ACAD_XDICTIONARY
360
84F
102
}
102
{ACAD_REACTORS
330
29
102
}
330
29
100
AcDbVisualStyle
  2

 70
     0
 71
     2
 72
     1
 73
     1
 90
        2
 40
-0.6
 41
30.0
 62
     5
 63
     7
 74
     0
 91
        0
 64
     7
 65
   257
 75
     1
175
     1
 42
1.0
 92
        8
 66
     7
 43
1.0
 76
     1
 77
     6
 78
     2
 67
     7
 79
     5
170
     0
171
     0
290
     0
174
     0
 93
       13
 44
0.0
173
     0
291
     1
 45
0.0
1001
ACAD
1000
AcDbSavedByObjectVersion
1070
     0
  0
VISUALSTYLE
  5
2B
102
{ACAD_XDICTIONARY
360
851
102
}
102
{ACAD_REACTORS
330
29
102
}
330
29
100
AcDbVisualStyle
  2

 70
     1
 71
     2
 72
     1
 73
     1
 90
        2
 40
-0.6
 41
30.0
 62
     5
 63
     7
 74
     1
 91
        0
 64
     7
 65
   257
 75
     1
175
     1
 42
1.0
 92
        0
 66
   257
 43
1.0
 76
     1
 77
     6
 78
     2
 67
     7
 79
     5
170
     0
171
     0
290
     0
174
     0
 93
       13
 44
0.0
173
     0
291
     1
 45
0.0
1001
ACAD
1000
AcDbSavedByObjectVersion
1070
     0
  0
VISUALSTYLE
  5
2C
102
{ACAD_XDICTIONARY
360
853
102
}
102
{ACAD_REACTORS
330
29
102
}
330
29
100
AcDbVisualStyle
  2

 70
     2
 71
     2
 72
     2
 73
     1
 90
        2
 40
-0.6
 41
30.0
 62
     5
 63
     7
 74
     0
 91
        0
 64
     7
 65
   257
 75
     1
175
     1
 42
1.0
 92
        0
 66
     7
 43
1.0
 76
     1
 77
     6
 78
     2
 67
     7
 79
     5
170
     0
171
     0
290
     0
174
     0
 93
       13
 44
0.0
173
     0
291
     1
 45
0.0
1001
ACAD
1000
AcDbSavedByObjectVersion
1070
     0
  0
VISUALSTYLE
  5
2D
102
{ACAD_XDICTIONARY
360
855
102
}
102
{ACAD_REACTORS
330
29
102
}
330
29
100
AcDbVisualStyle
  2

 70
     3
 71
     2
 72
     2
 73
     1
 90
        2
 40
-0.6
 41
30.0
 62
     5
 63
     7
 74
     1
 91
        0
 64
     7
 65
   257
 75
     1
175
     1
 42
1.0
 92
        0
 66
   257
 43
1.0
 76
     1
 77
     6
 78
     2
 67
     7
 79
     5
170
     0
171
     0
290
     0
174
     0
 93
       13
 44
0.0
173
     0
291
     1
 45
0.0
1001
ACAD
1000
AcDbSavedByObjectVersion
1070
     0
  0
VISUALSTYLE
  5
31
102
{ACAD_XDICTIONARY
360
85D
102
}
102
{ACAD_REACTORS
330
29
102
}
330
29
100
AcDbVisualStyle
  2

 70
     6
 71
     1
 72
     2
 73
     2
 90
        0
 40
-0.6
 41
-30.0
 62
     5
 63
     7
 74
     2
 91
        2
 64
     7
 65
   257
 75
     2
175
     1
 42
40.0
 92
        0
 66
   257
 43
1.0
 76
     1
 77
     6
 78
     2
 67
     7
 79
     3
170
     0
171
     0
290
     0
174
     0
 93
        1
 44
0.0
173
     0
291
     0
 45
0.0
1001
ACAD
1000
AcDbSavedByObjectVersion
1070
     0
  0
VISUALSTYLE
  5
3F
102
{ACAD_XDICTIONARY
360
879
102
}
102
{ACAD_REACTORS
330
29
102
}
330
29
100
AcDbVisualStyle
  2

 70
    20
 71
     2
 72
     2
 73
     0
 90
        0
 40
-0.6
 41
-30.0
 62
     5
 63
     7
 74
     1
 91
        4
 64
     7
 65
   257
 75
     1
175
     1
 42
1.0
 92
       10
 66
     7
 43
1.0
 76
     1
 77
     6
 78
     2
 67
     7
 79
     5
170
     0
171
     0
290
     0
174
     0
 93
        1
 44
0.0
173
     0
291
     1
 45
0.0
1001
ACAD
1000
AcDbSavedByObjectVersion
1070
     0
  0
VISUALSTYLE
  5
37
102
{ACAD_XDICTIONARY
360
869
102
}
102
{ACAD_REACTORS
330
29
102
}
330
29
100
AcDbVisualStyle
  2

 70
    14
 71
     2
 72
     2
 73
     0
 90
        0
 40
-0.6
 41
-30.0
 62
     5
 63
     7
 74
     1
 91
        4
 64
     7
 65
   257
 75
     7
175
     7
 42
1.0
 92
        8
 66
     7
 43
1.0
 76
     1
 77
     6
 78
     2
 67
     7
 79
     5
170
     0
171
     0
290
     0
174
     0
 93
        1
 44
0.0
173
     0
291
     1
 45
0.0
1001
ACAD
1000
AcDbSavedByObjectVersion
1070
     0
  0
VISUALSTYLE
  5
40
102
{ACAD_XDICTIONARY
360
87B
102
}
102
{ACAD_REACTORS
330
29
102
}
330
29
100
AcDbVisualStyle
  2

 70
    21
 71
     2
 72
     2
 73
     0
 90
        0
 40
-0.6
 41
-30.0
 62
     5
 63
     7
 74
     1
 91
        4
 64
     7
 65
   257
 75
     1
175
     1
 42
1.0
 92
        9
 66
     7
 43
1.0
 76
     1
 77
     6
 78
     2
 67
     7
 79
     5
170
     0
171
     0
290
     0
174
     0
 93
        1
 44
0.0
173
     0
291
     1
 45
0.0
1001
ACAD
1000
AcDbSavedByObjectVersion
1070
     0
  0
VISUALSTYLE
  5
33
102
{ACAD_XDICTIONARY
360
861
102
}
102
{ACAD_REACTORS
330
29
102
}
330
29
100
AcDbVisualStyle
  2

 70
     8
 71
     2
 72
     3
 73
     0
 90
        2
 40
-0.6
 41
30.0
 62
     5
 63
     7
 74
     0
 91
        0
 64
     7
 65
   257
 75
     1
175
     1
 42
1.0
 92
        8
 66
   257
 43
1.0
 76
     1
 77
     6
 78
     2
 67
     7
 79
     3
170
     0
171
     0
290
     0
174
     0
 93
       13
 44
0.0
173
     0
291
     0
 45
0.0
1001
ACAD
1000
AcDbSavedByObjectVersion
1070
     0
  0
VISUALSTYLE
  5
3E
102
{ACAD_XDICTIONARY
360
877
102
}
102
{ACAD_REACTORS
330
29
102
}
330
29
100
AcDbVisualStyle
  2

 70
    27
 71
     2
 72
     2
 73
     1
 90
        2
 40
-0.6
 41
30.0
 62
     5
 63
     7
 74
     0
 91
        4
 64
     7
 65
   257
 75
     1
175
     1
 42
1.0
 92
        8
 66
   257
 43
1.0
 76
     1
 77
     6
 78
     2
 67
     8
 79
     3
170
     0
171
     0
290
     0
174
     0
 93
        5
 44
0.0
173
     0
291
     0
 45
0.0
1001
ACAD
1000
AcDbSavedByObjectVersion
1070
     0
  0
VISUALSTYLE
  5
3D
102
{ACAD_XDICTIONARY
360
875
102
}
102
{ACAD_REACTORS
330
29
102
}
330
29
100
AcDbVisualStyle
  2

 70
    26
 71
     2
 72
     2
 73
     1
 90
        2
 40
-0.6
 41
30.0
 62
     5
 63
     7
 74
     1
 91
       10
 64
     7
 65
   257
 75
     2
175
     1
 42
1.0
 92
        8
 66
   257
 43
1.0
 76
     1
 77
     6
 78
     2
 67
     7
 79
     3
170
     0
171
     0
290
     0
174
     0
 93
        5
 44
0.0
173
     0
291
     0
 45
0.0
1001
ACAD
1000
AcDbSavedByObjectVersion
1070
     0
  0
VISUALSTYLE
  5
3A
102
{ACAD_XDICTIONARY
360
86F
102
}
102
{ACAD_REACTORS
330
29
102
}
330
29
100
AcDbVisualStyle
  2

 70
    23
 71
     2
 72
     2
 73
     3
 90
        0
 40
-0.6
 41
-30.0
 62
     5
 63
     7
 74
     2
 91
        2
 64
     7
 65
     7
 75
     1
175
     1
 42
40.0
 92
        8
 66
     7
 43
1.0
 76
     1
 77
     6
 78
     2
 67
     7
 79
     3
170
     0
171
     0
290
     0
174
     0
 93
        1
 44
0.0
173
     0
291
     0
 45
0.0
1001
ACAD
1000
AcDbSavedByObjectVersion
1070
     0
  0
VISUALSTYLE
  5
3B
102
{ACAD_XDICTIONARY
360
871
102
}
102
{ACAD_REACTORS
330
29
102
}
330
29
100
AcDbVisualStyle
  2

 70
    24
 71
     1
 72
     2
 73
     2
 90
        0
 40
-0.6
 41
-30.0
 62
     5
 63
     7
 74
     2
 91
        2
 64
     7
 65
     7
 75
     1
175
     1
 42
40.0
 92
       11
 66
     7
 43
1.0
 76
     1
 77
     6
 78
     2
 67
     7
 79
     6
170
     0
171
     0
290
     0
174
     0
 93
        1
 44
0.0
173
     0
291
     0
 45
0.0
1001
ACAD
1000
AcDbSavedByObjectVersion
1070
     0
  0
VISUALSTYLE
  5
36
102
{ACAD_XDICTIONARY
360
867
102
}
102
{ACAD_REACTORS
330
29
102
}
330
29
100
AcDbVisualStyle
  2

 70
    13
 71
     2
 72
     2
 73
     0
 90
        0
 40
-0.6
 41
-30.0
 62
     5
 63
     7
 74
     1
 91
        4
 64
     7
 65
   257
 75
     1
175
     1
 42
1.0
 92
       12
 66
     7
 43
1.0
 76
     1
 77
     6
 78
     2
 67
     7
 79
     5
170
     0
171
     0
290
     0
174
     0
 93
        1
 44
0.0
173
     0
291
     1
 45
0.0
1001
ACAD
1000
AcDbSavedByObjectVersion
1070
     0
  0
VISUALSTYLE
  5
30
102
{ACAD_XDICTIONARY
360
85B
102
}
102
{ACAD_REACTORS
330
29
102
}
330
29
100
AcDbVisualStyle
  2

 70
     5
 71
     0
 72
     2
 73
     0
 90
        0
 40
-0.6
 41
-30.0
 62
     5
 63
     7
 74
     1
 91
        4
 64
     7
 65
   257
 75
     1
175
     1
 42
1.0
 92
        0
 66
   257
 43
1.0
 76
     1
 77
     6
 78
     2
 67
     7
 79
     3
170
     0
171
     0
290
     0
174
     0
 93
        1
 44
0.0
173
     0
291
     0
 45
0.0
1001
ACAD
1000
AcDbSavedByObjectVersion
1070
     0
  0
VISUALSTYLE
  5
3C
102
{ACAD_XDICTIONARY
360
873
102
}
102
{ACAD_REACTORS
330
29
102
}
330
29
100
AcDbVisualStyle
  2

 70
    25
 71
     2
 72
     2
 73
     1
 90
        1
 40
0.5
 41
-30.0
 62
     5
 63
     7
 74
     1
 91
        0
 64
     7
 65
   257
 75
     1
175
     1
 42
1.0
 92
        8
 66
     7
 43
1.0
 76
     1
 77
     6
 78
     2
 67
     7
 79
     3
170
     0
171
     0
290
     0
174
     0
 93
       13
 44
0.0
173
     0
291
     0
 45
0.0
1001
ACAD
1000
AcDbSavedByObjectVersion
1070
     0
  0
DICTIONARYVAR
  5
53D
102
{ACAD_REACTORS
330
53A
102
}
330
53A
100
DictionaryVariables
280
     0
  1
1:1
  0
DICTIONARYVAR
  5
53C
102
{ACAD_REACTORS
330
53A
102
}
330
53A
100
DictionaryVariables
280
     0
  1
STANDARD
  0
DICTIONARYVAR
  5
53B
102
{ACAD_REACTORS
330
53A
102
}
330
53A
100
DictionaryVariables
280
     0
  1
STANDARD
  0
DICTIONARYVAR
  5
540
102
{ACAD_REACTORS
330
53A
102
}
330
53A
100
DictionaryVariables
280
     0
  1
1
  0
DICTIONARYVAR
  5
53F
102
{ACAD_REACTORS
330
53A
102
}
330
53A
100
DictionaryVariables
280
     0
  1
0
  0
DICTIONARYVAR
  5
53E
102
{ACAD_REACTORS
330
53A
102
}
330
53A
100
DictionaryVariables
280
     0
  1
127
  0
DICTIONARYVAR
  5
778
102
{ACAD_REACTORS
330
53A
102
}
330
53A
100
DictionaryVariables
280
     0
  1
2
  0
DICTIONARY
  5
511
102
{ACAD_REACTORS
330
510
102
}
330
510
100
AcDbDictionary
281
     1
  0
DICTIONARY
  5
882
330
6E
100
AcDbDictionary
280
     1
281
     1
  3
ACAD_XREC_ROUNDTRIP
360
883
  0
DICTIONARY
  5
880
330
6A
100
AcDbDictionary
280
     1
281
     1
  3
ACAD_XREC_ROUNDTRIP
360
881
  0
DICTIONARY
  5
1A
330
19
100
AcDbDictionary
280
     1
281
     1
  3
ACAD_XREC_ROUNDTRIP
360
547
  3
BUMPTILE
360
1C
  3
DIFFUSETILE
360
1B
  3
OPACITYTILE
360
1F
  3
REFLECTIONTILE
360
1E
  3
REFRACTIONTILE
360
20
  3
SPECULARTILE
360
1D
  0
DICTIONARY
  5
12
330
11
100
AcDbDictionary
280
     1
281
     1
  3
ACAD_XREC_ROUNDTRIP
360
546
  3
BUMPTILE
360
14
  3
DIFFUSETILE
360
13
  3
OPACITYTILE
360
17
  3
REFLECTIONTILE
360
16
  3
REFRACTIONTILE
360
18
  3
SPECULARTILE
360
15
  0
DICTIONARY
  5
22
330
21
100
AcDbDictionary
280
     1
281
     1
  3
ACAD_XREC_ROUNDTRIP
360
548
  3
BUMPTILE
360
24
  3
DIFFUSETILE
360
23
  3
OPACITYTILE
360
27
  3
REFLECTIONTILE
360
26
  3
REFRACTIONTILE
360
28
  3
SPECULARTILE
360
25
  0
DICTIONARY
  5
542
330
64
100
AcDbDictionary
280
     1
281
     1
  3
ACAD_ROUNDTRIP_2008_TABLESTYLE_CELLSTYLEMAP
360
847
  3
ACAD_XREC_ROUNDTRIP
360
87F
  0
DICTIONARY
  5
639
330
638
100
AcDbDictionary
280
     1
281
     1
  3
ACAD_ROUNDTRIP_2008_TABLESTYLE_CELLSTYLEMAP
360
848
  3
ACAD_XREC_ROUNDTRIP
360
886
  0
DICTIONARY
  5
859
330
2F
100
AcDbDictionary
280
     1
281
     1
  3
ACAD_XREC_ROUNDTRIP
360
85A
  0
DICTIONARY
  5
884
330
37D
100
AcDbDictionary
280
     1
281
     1
  3
ACAD_XREC_ROUNDTRIP
360
885
  0
DICTIONARY
  5
857
330
2E
100
AcDbDictionary
280
     1
281
     1
  3
ACAD_XREC_ROUNDTRIP
360
858
  0
DICTIONARY
  5
865
330
35
100
AcDbDictionary
280
     1
281
     1
  3
ACAD_XREC_ROUNDTRIP
360
866
  0
DICTIONARY
  5
86D
330
39
100
AcDbDictionary
280
     1
281
     1
  3
ACAD_XREC_ROUNDTRIP
360
86E
  0
DICTIONARY
  5
85F
330
32
100
AcDbDictionary
280
     1
281
     1
  3
ACAD_XREC_ROUNDTRIP
360
860
  0
DICTIONARY
  5
863
330
34
100
AcDbDictionary
280
     1
281
     1
  3
ACAD_XREC_ROUNDTRIP
360
864
  0
DICTIONARY
  5
87D
330
41
100
AcDbDictionary
280
     1
281
     1
  3
ACAD_XREC_ROUNDTRIP
360
87E
  0
DICTIONARY
  5
86B
330
38
100
AcDbDictionary
280
     1
281
     1
  3
ACAD_XREC_ROUNDTRIP
360
86C
  0
DICTIONARY
  5
84F
330
2A
100
AcDbDictionary
280
     1
281
     1
  3
ACAD_XREC_ROUNDTRIP
360
850
  0
DICTIONARY
  5
851
330
2B
100
AcDbDictionary
280
     1
281
     1
  3
ACAD_XREC_ROUNDTRIP
360
852
  0
DICTIONARY
  5
853
330
2C
100
AcDbDictionary
280
     1
281
     1
  3
ACAD_XREC_ROUNDTRIP
360
854
  0
DICTIONARY
  5
855
330
2D
100
AcDbDictionary
280
     1
281
     1
  3
ACAD_XREC_ROUNDTRIP
360
856
  0
DICTIONARY
  5
85D
330
31
100
AcDbDictionary
280
     1
281
     1
  3
ACAD_XREC_ROUNDTRIP
360
85E
  0
DICTIONARY
  5
879
330
3F
100
AcDbDictionary
280
     1
281
     1
  3
ACAD_XREC_ROUNDTRIP
360
87A
  0
DICTIONARY
  5
869
330
37
100
AcDbDictionary
280
     1
281
     1
  3
ACAD_XREC_ROUNDTRIP
360
86A
  0
DICTIONARY
  5
87B
330
40
100
AcDbDictionary
280
     1
281
     1
  3
ACAD_XREC_ROUNDTRIP
360
87C
  0
DICTIONARY
  5
861
330
33
100
AcDbDictionary
280
     1
281
     1
  3
ACAD_XREC_ROUNDTRIP
360
862
  0
DICTIONARY
  5
877
330
3E
100
AcDbDictionary
280
     1
281
     1
  3
ACAD_XREC_ROUNDTRIP
360
878
  0
DICTIONARY
  5
875
330
3D
100
AcDbDictionary
280
     1
281
     1
  3
ACAD_XREC_ROUNDTRIP
360
876
  0
DICTIONARY
  5
86F
330
3A
100
AcDbDictionary
280
     1
281
     1
  3
ACAD_XREC_ROUNDTRIP
360
870
  0
DICTIONARY
  5
871
330
3B
100
AcDbDictionary
280
     1
281
     1
  3
ACAD_XREC_ROUNDTRIP
360
872
  0
DICTIONARY
  5
867
330
36
100
AcDbDictionary
280
     1
281
     1
  3
ACAD_XREC_ROUNDTRIP
360
868
  0
DICTIONARY
  5
85B
330
30
100
AcDbDictionary
280
     1
281
     1
  3
ACAD_XREC_ROUNDTRIP
360
85C
  0
DICTIONARY
  5
873
330
3C
100
AcDbDictionary
280
     1
281
     1
  3
ACAD_XREC_ROUNDTRIP
360
874
  0
XRECORD
  5
883
102
{ACAD_REACTORS
330
882
102
}
330
882
100
AcDbXrecord
280
     1
102
SHADEPLOT
 70
     0
102
SHADEPLOTRESLEVEL
 70
     2
102
SHADEPLOTCUSTOMDPI
 70
   300
  0
XRECORD
  5
881
102
{ACAD_REACTORS
330
880
102
}
330
880
100
AcDbXrecord
280
     1
102
SHADEPLOT
 70
     0
102
SHADEPLOTRESLEVEL
 70
     2
102
SHADEPLOTCUSTOMDPI
 70
   300
  0
XRECORD
  5
547
102
{ACAD_REACTORS
330
1A
102
}
330
1A
100
AcDbXrecord
280
     1
102
MATERIAL
148
0.0
149
0.0
149
0.0
 93
        0
 94
      127
282
     0
 72
     0
 77
     0
171
     0
175
     0
179
     0
273
     0
  0
XRECORD
  5
1C
102
{ACAD_REACTORS
330
1A
102
}
330
1A
100
AcDbXrecord
280
     1
270
     1
271
     1
  0
XRECORD
  5
1B
102
{ACAD_REACTORS
330
1A
102
}
330
1A
100
AcDbXrecord
280
     1
270
     1
271
     1
  0
XRECORD
  5
1F
102
{ACAD_REACTORS
330
1A
102
}
330
1A
100
AcDbXrecord
280
     1
270
     1
271
     1
  0
XRECORD
  5
1E
102
{ACAD_REACTORS
330
1A
102
}
330
1A
100
AcDbXrecord
280
     1
270
     1
271
     1
  0
XRECORD
  5
20
102
{ACAD_REACTORS
330
1A
102
}
330
1A
100
AcDbXrecord
280
     1
270
     1
271
     1
  0
XRECORD
  5
1D
102
{ACAD_REACTORS
330
1A
102
}
330
1A
100
AcDbXrecord
280
     1
270
     1
271
     1
  0
XRECORD
  5
546
102
{ACAD_REACTORS
330
12
102
}
330
12
100
AcDbXrecord
280
     1
102
MATERIAL
148
0.0
149
0.0
149
0.0
 93
        0
 94
      127
282
     0
 72
     0
 77
     0
171
     0
175
     0
179
     0
273
     0
  0
XRECORD
  5
14
102
{ACAD_REACTORS
330
12
102
}
330
12
100
AcDbXrecord
280
     1
270
     1
271
     1
  0
XRECORD
  5
13
102
{ACAD_REACTORS
330
12
102
}
330
12
100
AcDbXrecord
280
     1
270
     1
271
     1
  0
XRECORD
  5
17
102
{ACAD_REACTORS
330
12
102
}
330
12
100
AcDbXrecord
280
     1
270
     1
271
     1
  0
XRECORD
  5
16
102
{ACAD_REACTORS
330
12
102
}
330
12
100
AcDbXrecord
280
     1
270
     1
271
     1
  0
XRECORD
  5
18
102
{ACAD_REACTORS
330
12
102
}
330
12
100
AcDbXrecord
280
     1
270
     1
271
     1
  0
XRECORD
  5
15
102
{ACAD_REACTORS
330
12
102
}
330
12
100
AcDbXrecord
280
     1
270
     1
271
     1
  0
XRECORD
  5
548
102
{ACAD_REACTORS
330
22
102
}
330
22
100
AcDbXrecord
280
     1
102
MATERIAL
148
0.0
149
0.0
149
0.0
 93
        0
 94
      127
282
     0
 72
     0
 77
     0
171
     0
175
     0
179
     0
273
     0
  0
XRECORD
  5
24
102
{ACAD_REACTORS
330
22
102
}
330
22
100
AcDbXrecord
280
     1
270
     1
271
     1
  0
XRECORD
  5
23
102
{ACAD_REACTORS
330
22
102
}
330
22
100
AcDbXrecord
280
     1
270
     1
271
     1
  0
XRECORD
  5
27
102
{ACAD_REACTORS
330
22
102
}
330
22
100
AcDbXrecord
280
     1
270
     1
271
     1
  0
XRECORD
  5
26
102
{ACAD_REACTORS
330
22
102
}
330
22
100
AcDbXrecord
280
     1
270
     1
271
     1
  0
XRECORD
  5
28
102
{ACAD_REACTORS
330
22
102
}
330
22
100
AcDbXrecord
280
     1
270
     1
271
     1
  0
XRECORD
  5
25
102
{ACAD_REACTORS
330
22
102
}
330
22
100
AcDbXrecord
280
     1
270
     1
271
     1
  0
CELLSTYLEMAP
  5
847
102
{ACAD_REACTORS
330
542
102
}
330
542
100
AcDbCellStyleMap
 90
        3
300
CELLSTYLE
  1
TABLEFORMAT_BEGIN
 90
        5
170
     1
 91
        0
 92
    32768
 62
   257
 93
        1
300
CONTENTFORMAT
  1
CONTENTFORMAT_BEGIN
 90
        0
 91
        0
 92
      512
 93
        0
300

 40
0.0
140
1.0
 94
        5
 62
     0
340
55
144
0.25
309
CONTENTFORMAT_END
171
     1
301
MARGIN
  1
CELLMARGIN_BEGIN
 40
0.06
 40
0.06
 40
0.06
 40
0.06
 40
0.18
 40
0.18
309
CELLMARGIN_END
 94
        6
 95
        1
302
GRIDFORMAT
  1
GRIDFORMAT_BEGIN
 90
        0
 91
        1
 62
     0
 92
       -2
340
0
 93
        0
 40
0.045
309
GRIDFORMAT_END
 95
        2
302
GRIDFORMAT
  1
GRIDFORMAT_BEGIN
 90
        0
 91
        1
 62
     0
 92
       -2
340
0
 93
        0
 40
0.045
309
GRIDFORMAT_END
 95
        4
302
GRIDFORMAT
  1
GRIDFORMAT_BEGIN
 90
        0
 91
        1
 62
     0
 92
       -2
340
0
 93
        0
 40
0.045
309
GRIDFORMAT_END
 95
        8
302
GRIDFORMAT
  1
GRIDFORMAT_BEGIN
 90
        0
 91
        1
 62
     0
 92
       -2
340
0
 93
        0
 40
0.045
309
GRIDFORMAT_END
 95
       16
302
GRIDFORMAT
  1
GRIDFORMAT_BEGIN
 90
        0
 91
        1
 62
     0
 92
       -2
340
0
 93
        0
 40
0.045
309
GRIDFORMAT_END
 95
       32
302
GRIDFORMAT
  1
GRIDFORMAT_BEGIN
 90
        0
 91
        1
 62
     0
 92
       -2
340
0
 93
        0
 40
0.045
309
GRIDFORMAT_END
309
TABLEFORMAT_END
  1
CELLSTYLE_BEGIN
 90
        1
 91
        1
300
_TITLE
309
CELLSTYLE_END
300
CELLSTYLE
  1
TABLEFORMAT_BEGIN
 90
        5
170
     1
 91
        0
 92
        0
 62
   257
 93
        1
300
CONTENTFORMAT
  1
CONTENTFORMAT_BEGIN
 90
        0
 91
        0
 92
      512
 93
        0
300

 40
0.0
140
1.0
 94
        5
 62
     0
340
55
144
0.18
309
CONTENTFORMAT_END
171
     1
301
MARGIN
  1
CELLMARGIN_BEGIN
 40
0.06
 40
0.06
 40
0.06
 40
0.06
 40
0.18
 40
0.18
309
CELLMARGIN_END
 94
        6
 95
        1
302
GRIDFORMAT
  1
GRIDFORMAT_BEGIN
 90
        0
 91
        1
 62
     0
 92
       -2
340
0
 93
        0
 40
0.045
309
GRIDFORMAT_END
 95
        2
302
GRIDFORMAT
  1
GRIDFORMAT_BEGIN
 90
        0
 91
        1
 62
     0
 92
       -2
340
0
 93
        0
 40
0.045
309
GRIDFORMAT_END
 95
        4
302
GRIDFORMAT
  1
GRIDFORMAT_BEGIN
 90
        0
 91
        1
 62
     0
 92
       -2
340
0
 93
        0
 40
0.045
309
GRIDFORMAT_END
 95
        8
302
GRIDFORMAT
  1
GRIDFORMAT_BEGIN
 90
        0
 91
        1
 62
     0
 92
       -2
340
0
 93
        0
 40
0.045
309
GRIDFORMAT_END
 95
       16
302
GRIDFORMAT
  1
GRIDFORMAT_BEGIN
 90
        0
 91
        1
 62
     0
 92
       -2
340
0
 93
        0
 40
0.045
309
GRIDFORMAT_END
 95
       32
302
GRIDFORMAT
  1
GRIDFORMAT_BEGIN
 90
        0
 91
        1
 62
     0
 92
       -2
340
0
 93
        0
 40
0.045
309
GRIDFORMAT_END
309
TABLEFORMAT_END
  1
CELLSTYLE_BEGIN
 90
        2
 91
        1
300
_HEADER
309
CELLSTYLE_END
300
CELLSTYLE
  1
TABLEFORMAT_BEGIN
 90
        5
170
     1
 91
        0
 92
        0
 62
   257
 93
        1
300
CONTENTFORMAT
  1
CONTENTFORMAT_BEGIN
 90
        0
 91
        0
 92
      512
 93
        0
300

 40
0.0
140
1.0
 94
        2
 62
     0
340
55
144
0.18
309
CONTENTFORMAT_END
171
     1
301
MARGIN
  1
CELLMARGIN_BEGIN
 40
0.06
 40
0.06
 40
0.06
 40
0.06
 40
0.18
 40
0.18
309
CELLMARGIN_END
 94
        6
 95
        1
302
GRIDFORMAT
  1
GRIDFORMAT_BEGIN
 90
        0
 91
        1
 62
     0
 92
       -2
340
0
 93
        0
 40
0.045
309
GRIDFORMAT_END
 95
        2
302
GRIDFORMAT
  1
GRIDFORMAT_BEGIN
 90
        0
 91
        1
 62
     0
 92
       -2
340
0
 93
        0
 40
0.045
309
GRIDFORMAT_END
 95
        4
302
GRIDFORMAT
  1
GRIDFORMAT_BEGIN
 90
        0
 91
        1
 62
     0
 92
       -2
340
0
 93
        0
 40
0.045
309
GRIDFORMAT_END
 95
        8
302
GRIDFORMAT
  1
GRIDFORMAT_BEGIN
 90
        0
 91
        1
 62
     0
 92
       -2
340
0
 93
        0
 40
0.045
309
GRIDFORMAT_END
 95
       16
302
GRIDFORMAT
  1
GRIDFORMAT_BEGIN
 90
        0
 91
        1
 62
     0
 92
       -2
340
0
 93
        0
 40
0.045
309
GRIDFORMAT_END
 95
       32
302
GRIDFORMAT
  1
GRIDFORMAT_BEGIN
 90
        0
 91
        1
 62
     0
 92
       -2
340
0
 93
        0
 40
0.045
309
GRIDFORMAT_END
309
TABLEFORMAT_END
  1
CELLSTYLE_BEGIN
 90
        3
 91
        2
300
_DATA
309
CELLSTYLE_END
  0
XRECORD
  5
87F
102
{ACAD_REACTORS
330
542
102
}
330
542
100
AcDbXrecord
280
     1
102
ACAD_ROUNDTRIP_PRE2007_TABLESTYLE
 90
      512
 91
        0
  1

 92
      512
 93
        0
  2

 94
      512
 95
        0
  3

  0
CELLSTYLEMAP
  5
848
102
{ACAD_REACTORS
330
639
102
}
330
639
100
AcDbCellStyleMap
 90
        3
300
CELLSTYLE
  1
TABLEFORMAT_BEGIN
 90
        5
170
     1
 91
        0
 92
    32768
 62
   257
 93
        1
300
CONTENTFORMAT
  1
CONTENTFORMAT_BEGIN
 90
        0
 91
        0
 92
      512
 93
        0
300

 40
0.0
140
1.0
 94
        8
 62
     3
340
36A
144
0.25
309
CONTENTFORMAT_END
171
     1
301
MARGIN
  1
CELLMARGIN_BEGIN
 40
0.5
 40
10.0
 40
0.06
 40
0.06
 40
0.18
 40
0.18
309
CELLMARGIN_END
 94
        6
 95
        1
302
GRIDFORMAT
  1
GRIDFORMAT_BEGIN
 90
        0
 91
        1
 62
     0
 92
       -2
340
0
 93
        0
 40
0.045
309
GRIDFORMAT_END
 95
        2
302
GRIDFORMAT
  1
GRIDFORMAT_BEGIN
 90
        0
 91
        1
 62
     0
 92
       -2
340
0
 93
        0
 40
0.045
309
GRIDFORMAT_END
 95
        4
302
GRIDFORMAT
  1
GRIDFORMAT_BEGIN
 90
        0
 91
        1
 62
     0
 92
       -2
340
0
 93
        0
 40
0.045
309
GRIDFORMAT_END
 95
        8
302
GRIDFORMAT
  1
GRIDFORMAT_BEGIN
 90
        0
 91
        1
 62
     0
 92
       -2
340
0
 93
        0
 40
0.045
309
GRIDFORMAT_END
 95
       16
302
GRIDFORMAT
  1
GRIDFORMAT_BEGIN
 90
        0
 91
        1
 62
     0
 92
       -2
340
0
 93
        0
 40
0.045
309
GRIDFORMAT_END
 95
       32
302
GRIDFORMAT
  1
GRIDFORMAT_BEGIN
 90
        0
 91
        1
 62
     0
 92
       -2
340
0
 93
        0
 40
0.045
309
GRIDFORMAT_END
309
TABLEFORMAT_END
  1
CELLSTYLE_BEGIN
 90
        1
 91
        1
300
_TITLE
309
CELLSTYLE_END
300
CELLSTYLE
  1
TABLEFORMAT_BEGIN
 90
        5
170
     1
 91
        0
 92
        0
 62
   257
 93
        1
300
CONTENTFORMAT
  1
CONTENTFORMAT_BEGIN
 90
        0
 91
        0
 92
      512
 93
        0
300

 40
0.0
140
1.0
 94
        7
 62
     3
340
36A
144
0.18
309
CONTENTFORMAT_END
171
     1
301
MARGIN
  1
CELLMARGIN_BEGIN
 40
0.5
 40
1.5
 40
0.06
 40
0.06
 40
0.18
 40
0.18
309
CELLMARGIN_END
 94
        6
 95
        1
302
GRIDFORMAT
  1
GRIDFORMAT_BEGIN
 90
        0
 91
        1
 62
     3
 92
       -2
340
5A
 93
        0
 40
0.045
309
GRIDFORMAT_END
 95
        2
302
GRIDFORMAT
  1
GRIDFORMAT_BEGIN
 90
        0
 91
        1
 62
     7
 92
       -2
340
5A
 93
        0
 40
0.045
309
GRIDFORMAT_END
 95
        4
302
GRIDFORMAT
  1
GRIDFORMAT_BEGIN
 90
        0
 91
        1
 62
     3
 92
       -2
340
5A
 93
        0
 40
0.045
309
GRIDFORMAT_END
 95
        8
302
GRIDFORMAT
  1
GRIDFORMAT_BEGIN
 90
        0
 91
        1
 62
     3
 92
       -2
340
5A
 93
        0
 40
0.045
309
GRIDFORMAT_END
 95
       16
302
GRIDFORMAT
  1
GRIDFORMAT_BEGIN
 90
        0
 91
        1
 62
     7
 92
       -2
340
5A
 93
        0
 40
0.045
309
GRIDFORMAT_END
 95
       32
302
GRIDFORMAT
  1
GRIDFORMAT_BEGIN
 90
        0
 91
        1
 62
     3
 92
       -2
340
5A
 93
        0
 40
0.045
309
GRIDFORMAT_END
309
TABLEFORMAT_END
  1
CELLSTYLE_BEGIN
 90
        2
 91
        1
300
_HEADER
309
CELLSTYLE_END
300
CELLSTYLE
  1
TABLEFORMAT_BEGIN
 90
        5
170
     1
 91
        0
 92
        0
 62
   257
 93
        1
300
CONTENTFORMAT
  1
CONTENTFORMAT_BEGIN
 90
        0
 91
        0
 92
      512
 93
        0
300

 40
0.0
140
1.0
 94
        7
 62
     3
340
36A
144
0.18
309
CONTENTFORMAT_END
171
     1
301
MARGIN
  1
CELLMARGIN_BEGIN
 40
0.5
 40
1.5
 40
0.06
 40
0.06
 40
0.18
 40
0.18
309
CELLMARGIN_END
 94
        6
 95
        1
302
GRIDFORMAT
  1
GRIDFORMAT_BEGIN
 90
        0
 91
        1
 62
     3
 92
       -2
340
5A
 93
        0
 40
0.045
309
GRIDFORMAT_END
 95
        2
302
GRIDFORMAT
  1
GRIDFORMAT_BEGIN
 90
        0
 91
        1
 62
     7
 92
       -2
340
5A
 93
        0
 40
0.045
309
GRIDFORMAT_END
 95
        4
302
GRIDFORMAT
  1
GRIDFORMAT_BEGIN
 90
        0
 91
        1
 62
     3
 92
       -2
340
5A
 93
        0
 40
0.045
309
GRIDFORMAT_END
 95
        8
302
GRIDFORMAT
  1
GRIDFORMAT_BEGIN
 90
        0
 91
        1
 62
     3
 92
       -2
340
5A
 93
        0
 40
0.045
309
GRIDFORMAT_END
 95
       16
302
GRIDFORMAT
  1
GRIDFORMAT_BEGIN
 90
        0
 91
        1
 62
     7
 92
       -2
340
5A
 93
        0
 40
0.045
309
GRIDFORMAT_END
 95
       32
302
GRIDFORMAT
  1
GRIDFORMAT_BEGIN
 90
        0
 91
        1
 62
     3
 92
       -2
340
5A
 93
        0
 40
0.045
309
GRIDFORMAT_END
309
TABLEFORMAT_END
  1
CELLSTYLE_BEGIN
 90
        3
 91
        2
300
_DATA
309
CELLSTYLE_END
  0
XRECORD
  5
886
102
{ACAD_REACTORS
330
639
102
}
330
639
100
AcDbXrecord
280
     1
102
ACAD_ROUNDTRIP_PRE2007_TABLESTYLE
 90
      512
 91
        0
  1

 92
      512
 93
        0
  2

 94
      512
 95
        0
  3

  0
XRECORD
  5
85A
102
{ACAD_REACTORS
330
859
102
}
330
859
100
AcDbXrecord
280
     1
102
RTVSPropertyOp0
 70
     1
102
RTVSPropertyOp1
 70
     1
102
RTVSPropertyOp2
 70
     1
102
RTVSPropertyOp3
 70
     1
102
RTVSPropertyOp4
 70
     1
102
RTVSPropertyOp5
 70
     1
102
RTVSPropertyOp6
 70
     1
102
RTVSPropertyOp7
 70
     1
102
RTVSPropertyOp8
 70
     1
102
RTVSPropertyOp9
 70
     1
102
RTVSPropertyOp10
 70
     1
102
RTVSPropertyOp11
 70
     1
102
RTVSPropertyOp12
 70
     1
102
RTVSPropertyOp13
 70
     1
102
RTVSPropertyOp14
 70
     1
102
RTVSPropertyOp15
 70
     1
102
RTVSPropertyOp16
 70
     1
102
RTVSPropertyOp17
 70
     1
102
RTVSPropertyOp18
 70
     1
102
RTVSPropertyOp19
 70
     1
102
RTVSPropertyOp20
 70
     1
102
RTVSPropertyOp21
 70
     1
102
RTVSPropertyOp22
 70
     1
102
RTVSPropertyOp23
 70
     1
102
RTVSPropertyOp24
 70
     1
102
RTVSPropertyOp25
 70
     1
102
RTVSPropertyOp26
 70
     1
102
RTVSPropertyOp27
 70
     1
102
RTVSPropertyOp28
 70
     1
102
RTVSPropertyOp29
 70
     1
102
RTVSPropertyOp30
 70
     1
102
RTVSPropertyOp31
 70
     1
102
RTVSPropertyOp32
 70
     1
  0
XRECORD
  5
885
102
{ACAD_REACTORS
330
884
102
}
330
884
100
AcDbXrecord
280
     1
102
RTVSPropertyOp0
 70
     1
102
RTVSPropertyOp1
 70
     1
102
RTVSPropertyOp2
 70
     1
102
RTVSPropertyOp3
 70
     1
102
RTVSPropertyOp4
 70
     1
102
RTVSPropertyOp5
 70
     1
102
RTVSPropertyOp6
 70
     1
102
RTVSPropertyOp7
 70
     1
102
RTVSPropertyOp8
 70
     1
102
RTVSPropertyOp9
 70
     1
102
RTVSPropertyOp10
 70
     1
102
RTVSPropertyOp11
 70
     1
102
RTVSPropertyOp12
 70
     1
102
RTVSPropertyOp13
 70
     1
102
RTVSPropertyOp14
 70
     1
102
RTVSPropertyOp15
 70
     1
102
RTVSPropertyOp16
 70
     1
102
RTVSPropertyOp17
 70
     1
102
RTVSPropertyOp18
 70
     1
102
RTVSPropertyOp19
 70
     1
102
RTVSPropertyOp20
 70
     1
102
RTVSPropertyOp21
 70
     1
102
RTVSPropertyOp22
 70
     1
102
RTVSPropertyOp23
 70
     1
102
RTVSPropertyOp24
 70
     1
102
RTVSPropertyOp25
 70
     1
102
RTVSPropertyOp26
 70
     1
102
RTVSPropertyOp27
 70
     1
102
RTVSPropertyOp28
 70
     1
102
RTVSPropertyOp29
 70
     1
102
RTVSPropertyOp30
 70
     1
102
RTVSPropertyOp31
 70
     1
102
RTVSPropertyOp32
 70
     1
  0
XRECORD
  5
858
102
{ACAD_REACTORS
330
857
102
}
330
857
100
AcDbXrecord
280
     1
102
RTVSPropertyOp0
 70
     1
102
RTVSPropertyOp1
 70
     1
102
RTVSPropertyOp2
 70
     1
102
RTVSPropertyOp3
 70
     1
102
RTVSPropertyOp4
 70
     1
102
RTVSPropertyOp5
 70
     1
102
RTVSPropertyOp6
 70
     1
102
RTVSPropertyOp7
 70
     1
102
RTVSPropertyOp8
 70
     1
102
RTVSPropertyOp9
 70
     1
102
RTVSPropertyOp10
 70
     1
102
RTVSPropertyOp11
 70
     1
102
RTVSPropertyOp12
 70
     1
102
RTVSPropertyOp13
 70
     1
102
RTVSPropertyOp14
 70
     1
102
RTVSPropertyOp15
 70
     1
102
RTVSPropertyOp16
 70
     1
102
RTVSPropertyOp17
 70
     1
102
RTVSPropertyOp18
 70
     1
102
RTVSPropertyOp19
 70
     1
102
RTVSPropertyOp20
 70
     1
102
RTVSPropertyOp21
 70
     1
102
RTVSPropertyOp22
 70
     1
102
RTVSPropertyOp23
 70
     1
102
RTVSPropertyOp24
 70
     1
102
RTVSPropertyOp25
 70
     1
102
RTVSPropertyOp26
 70
     1
102
RTVSPropertyOp27
 70
     1
102
RTVSPropertyOp28
 70
     1
102
RTVSPropertyOp29
 70
     1
102
RTVSPropertyOp30
 70
     1
102
RTVSPropertyOp31
 70
     1
102
RTVSPropertyOp32
 70
     1
  0
XRECORD
  5
866
102
{ACAD_REACTORS
330
865
102
}
330
865
100
AcDbXrecord
280
     1
102
RTVSPropertyOp0
 70
     1
102
RTVSPropertyOp1
 70
     1
102
RTVSPropertyOp2
 70
     1
102
RTVSPropertyOp3
 70
     1
102
RTVSPropertyOp4
 70
     1
102
RTVSPropertyOp5
 70
     1
102
RTVSPropertyOp6
 70
     1
102
RTVSPropertyOp7
 70
     1
102
RTVSPropertyOp8
 70
     1
102
RTVSPropertyOp9
 70
     1
102
RTVSPropertyOp10
 70
     1
102
RTVSPropertyOp11
 70
     1
102
RTVSPropertyOp12
 70
     1
102
RTVSPropertyOp13
 70
     1
102
RTVSPropertyOp14
 70
     1
102
RTVSPropertyOp15
 70
     1
102
RTVSPropertyOp16
 70
     1
102
RTVSPropertyOp17
 70
     1
102
RTVSPropertyOp18
 70
     1
102
RTVSPropertyOp19
 70
     1
102
RTVSPropertyOp20
 70
     1
102
RTVSPropertyOp21
 70
     1
102
RTVSPropertyOp22
 70
     1
102
RTVSPropertyOp23
 70
     1
102
RTVSPropertyOp24
 70
     1
102
RTVSPropertyOp25
 70
     1
102
RTVSPropertyOp26
 70
     1
102
RTVSPropertyOp27
 70
     1
102
RTVSPropertyOp28
 70
     1
102
RTVSPropertyOp29
 70
     1
102
RTVSPropertyOp30
 70
     1
102
RTVSPropertyOp31
 70
     1
102
RTVSPropertyOp32
 70
     1
  0
XRECORD
  5
86E
102
{ACAD_REACTORS
330
86D
102
}
330
86D
100
AcDbXrecord
280
     1
102
RTVSPropertyOp0
 70
     1
102
RTVSPropertyOp1
 70
     1
102
RTVSPropertyOp2
 70
     1
102
RTVSPropertyOp3
 70
     1
102
RTVSPropertyOp4
 70
     1
102
RTVSPropertyOp5
 70
     1
102
RTVSPropertyOp6
 70
     1
102
RTVSPropertyOp7
 70
     1
102
RTVSPropertyOp8
 70
     1
102
RTVSPropertyOp9
 70
     1
102
RTVSPropertyOp10
 70
     1
102
RTVSPropertyOp11
 70
     1
102
RTVSPropertyOp12
 70
     1
102
RTVSPropertyOp13
 70
     1
102
RTVSPropertyOp14
 70
     1
102
RTVSPropertyOp15
 70
     1
102
RTVSPropertyOp16
 70
     1
102
RTVSPropertyOp17
 70
     1
102
RTVSPropertyOp18
 70
     1
102
RTVSPropertyOp19
 70
     1
102
RTVSPropertyOp20
 70
     1
102
RTVSPropertyOp21
 70
     1
102
RTVSPropertyOp22
 70
     1
102
RTVSPropertyOp23
 70
     1
102
RTVSPropertyOp24
 70
     1
102
RTVSPropertyOp25
 70
     1
102
RTVSPropertyOp26
 70
     1
102
RTVSPropertyOp27
 70
     1
102
RTVSPropertyOp28
 70
     1
102
RTVSPropertyOp29
 70
     1
102
RTVSPropertyOp30
 70
     1
102
RTVSPropertyOp31
 70
     1
102
RTVSPropertyOp32
 70
     1
  0
XRECORD
  5
860
102
{ACAD_REACTORS
330
85F
102
}
330
85F
100
AcDbXrecord
280
     1
102
RTVSPropertyOp0
 70
     1
102
RTVSPropertyOp1
 70
     1
102
RTVSPropertyOp2
 70
     1
102
RTVSPropertyOp3
 70
     1
102
RTVSPropertyOp4
 70
     1
102
RTVSPropertyOp5
 70
     1
102
RTVSPropertyOp6
 70
     1
102
RTVSPropertyOp7
 70
     1
102
RTVSPropertyOp8
 70
     1
102
RTVSPropertyOp9
 70
     1
102
RTVSPropertyOp10
 70
     1
102
RTVSPropertyOp11
 70
     1
102
RTVSPropertyOp12
 70
     1
102
RTVSPropertyOp13
 70
     1
102
RTVSPropertyOp14
 70
     1
102
RTVSPropertyOp15
 70
     1
102
RTVSPropertyOp16
 70
     1
102
RTVSPropertyOp17
 70
     1
102
RTVSPropertyOp18
 70
     1
102
RTVSPropertyOp19
 70
     1
102
RTVSPropertyOp20
 70
     1
102
RTVSPropertyOp21
 70
     1
102
RTVSPropertyOp22
 70
     1
102
RTVSPropertyOp23
 70
     1
102
RTVSPropertyOp24
 70
     1
102
RTVSPropertyOp25
 70
     1
102
RTVSPropertyOp26
 70
     1
102
RTVSPropertyOp27
 70
     1
102
RTVSPropertyOp28
 70
     1
102
RTVSPropertyOp29
 70
     1
102
RTVSPropertyOp30
 70
     1
102
RTVSPropertyOp31
 70
     1
102
RTVSPropertyOp32
 70
     1
  0
XRECORD
  5
864
102
{ACAD_REACTORS
330
863
102
}
330
863
100
AcDbXrecord
280
     1
102
RTVSPropertyOp0
 70
     1
102
RTVSPropertyOp1
 70
     1
102
RTVSPropertyOp2
 70
     1
102
RTVSPropertyOp3
 70
     1
102
RTVSPropertyOp4
 70
     1
102
RTVSPropertyOp5
 70
     1
102
RTVSPropertyOp6
 70
     1
102
RTVSPropertyOp7
 70
     1
102
RTVSPropertyOp8
 70
     1
102
RTVSPropertyOp9
 70
     1
102
RTVSPropertyOp10
 70
     1
102
RTVSPropertyOp11
 70
     1
102
RTVSPropertyOp12
 70
     1
102
RTVSPropertyOp13
 70
     1
102
RTVSPropertyOp14
 70
     1
102
RTVSPropertyOp15
 70
     1
102
RTVSPropertyOp16
 70
     1
102
RTVSPropertyOp17
 70
     1
102
RTVSPropertyOp18
 70
     1
102
RTVSPropertyOp19
 70
     1
102
RTVSPropertyOp20
 70
     1
102
RTVSPropertyOp21
 70
     1
102
RTVSPropertyOp22
 70
     1
102
RTVSPropertyOp23
 70
     1
102
RTVSPropertyOp24
 70
     1
102
RTVSPropertyOp25
 70
     1
102
RTVSPropertyOp26
 70
     1
102
RTVSPropertyOp27
 70
     1
102
RTVSPropertyOp28
 70
     1
102
RTVSPropertyOp29
 70
     1
102
RTVSPropertyOp30
 70
     1
102
RTVSPropertyOp31
 70
     1
102
RTVSPropertyOp32
 70
     1
  0
XRECORD
  5
87E
102
{ACAD_REACTORS
330
87D
102
}
330
87D
100
AcDbXrecord
280
     1
102
RTVSPropertyOp0
 70
     0
102
RTVSPropertyOp1
 70
     0
102
RTVSPropertyOp2
 70
     0
102
RTVSPropertyOp3
 70
     0
102
RTVSPropertyOp4
 70
     0
102
RTVSPropertyOp5
 70
     0
102
RTVSPropertyOp6
 70
     0
102
RTVSPropertyOp7
 70
     0
102
RTVSPropertyOp8
 70
     0
102
RTVSPropertyOp9
 70
     0
102
RTVSPropertyOp10
 70
     0
102
RTVSPropertyOp11
 70
     0
102
RTVSPropertyOp12
 70
     0
102
RTVSPropertyOp13
 70
     0
102
RTVSPropertyOp14
 70
     2
102
RTVSPropertyOp15
 70
     0
102
RTVSPropertyOp16
 70
     0
102
RTVSPropertyOp17
 70
     0
102
RTVSPropertyOp18
 70
     0
102
RTVSPropertyOp19
 70
     0
102
RTVSPropertyOp20
 70
     0
102
RTVSPropertyOp21
 70
     0
102
RTVSPropertyOp22
 70
     0
102
RTVSPropertyOp23
 70
     0
102
RTVSPropertyOp24
 70
     0
102
RTVSPropertyOp25
 70
     0
102
RTVSPropertyOp26
 70
     0
102
RTVSPropertyOp27
 70
     0
102
RTVSPropertyOp28
 70
     0
102
RTVSPropertyOp29
 70
     0
102
RTVSPropertyOp30
 70
     0
102
RTVSPropertyOp31
 70
     0
102
RTVSPropertyOp32
 70
     0
  0
XRECORD
  5
86C
102
{ACAD_REACTORS
330
86B
102
}
330
86B
100
AcDbXrecord
280
     1
102
RTVSPropertyOp0
 70
     1
102
RTVSPropertyOp1
 70
     1
102
RTVSPropertyOp2
 70
     1
102
RTVSPropertyOp3
 70
     1
102
RTVSPropertyOp4
 70
     1
102
RTVSPropertyOp5
 70
     1
102
RTVSPropertyOp6
 70
     1
102
RTVSPropertyOp7
 70
     1
102
RTVSPropertyOp8
 70
     1
102
RTVSPropertyOp9
 70
     1
102
RTVSPropertyOp10
 70
     1
102
RTVSPropertyOp11
 70
     1
102
RTVSPropertyOp12
 70
     1
102
RTVSPropertyOp13
 70
     1
102
RTVSPropertyOp14
 70
     1
102
RTVSPropertyOp15
 70
     1
102
RTVSPropertyOp16
 70
     1
102
RTVSPropertyOp17
 70
     1
102
RTVSPropertyOp18
 70
     1
102
RTVSPropertyOp19
 70
     1
102
RTVSPropertyOp20
 70
     1
102
RTVSPropertyOp21
 70
     1
102
RTVSPropertyOp22
 70
     1
102
RTVSPropertyOp23
 70
     1
102
RTVSPropertyOp24
 70
     1
102
RTVSPropertyOp25
 70
     1
102
RTVSPropertyOp26
 70
     1
102
RTVSPropertyOp27
 70
     1
102
RTVSPropertyOp28
 70
     1
102
RTVSPropertyOp29
 70
     1
102
RTVSPropertyOp30
 70
     1
102
RTVSPropertyOp31
 70
     1
102
RTVSPropertyOp32
 70
     1
  0
XRECORD
  5
850
102
{ACAD_REACTORS
330
84F
102
}
330
84F
100
AcDbXrecord
280
     1
102
RTVSPropertyOp0
 70
     1
102
RTVSPropertyOp1
 70
     1
102
RTVSPropertyOp2
 70
     1
102
RTVSPropertyOp3
 70
     1
102
RTVSPropertyOp4
 70
     1
102
RTVSPropertyOp5
 70
     1
102
RTVSPropertyOp6
 70
     1
102
RTVSPropertyOp7
 70
     1
102
RTVSPropertyOp8
 70
     1
102
RTVSPropertyOp9
 70
     1
102
RTVSPropertyOp10
 70
     1
102
RTVSPropertyOp11
 70
     1
102
RTVSPropertyOp12
 70
     1
102
RTVSPropertyOp13
 70
     1
102
RTVSPropertyOp14
 70
     1
102
RTVSPropertyOp15
 70
     1
102
RTVSPropertyOp16
 70
     1
102
RTVSPropertyOp17
 70
     1
102
RTVSPropertyOp18
 70
     1
102
RTVSPropertyOp19
 70
     1
102
RTVSPropertyOp20
 70
     1
102
RTVSPropertyOp21
 70
     1
102
RTVSPropertyOp22
 70
     1
102
RTVSPropertyOp23
 70
     1
102
RTVSPropertyOp24
 70
     1
102
RTVSPropertyOp25
 70
     1
102
RTVSPropertyOp26
 70
     1
102
RTVSPropertyOp27
 70
     1
102
RTVSPropertyOp28
 70
     1
102
RTVSPropertyOp29
 70
     1
102
RTVSPropertyOp30
 70
     1
102
RTVSPropertyOp31
 70
     1
102
RTVSPropertyOp32
 70
     1
  0
XRECORD
  5
852
102
{ACAD_REACTORS
330
851
102
}
330
851
100
AcDbXrecord
280
     1
102
RTVSPropertyOp0
 70
     1
102
RTVSPropertyOp1
 70
     1
102
RTVSPropertyOp2
 70
     1
102
RTVSPropertyOp3
 70
     1
102
RTVSPropertyOp4
 70
     1
102
RTVSPropertyOp5
 70
     1
102
RTVSPropertyOp6
 70
     1
102
RTVSPropertyOp7
 70
     1
102
RTVSPropertyOp8
 70
     1
102
RTVSPropertyOp9
 70
     1
102
RTVSPropertyOp10
 70
     1
102
RTVSPropertyOp11
 70
     1
102
RTVSPropertyOp12
 70
     1
102
RTVSPropertyOp13
 70
     1
102
RTVSPropertyOp14
 70
     1
102
RTVSPropertyOp15
 70
     1
102
RTVSPropertyOp16
 70
     1
102
RTVSPropertyOp17
 70
     1
102
RTVSPropertyOp18
 70
     1
102
RTVSPropertyOp19
 70
     1
102
RTVSPropertyOp20
 70
     1
102
RTVSPropertyOp21
 70
     1
102
RTVSPropertyOp22
 70
     1
102
RTVSPropertyOp23
 70
     1
102
RTVSPropertyOp24
 70
     1
102
RTVSPropertyOp25
 70
     1
102
RTVSPropertyOp26
 70
     1
102
RTVSPropertyOp27
 70
     1
102
RTVSPropertyOp28
 70
     1
102
RTVSPropertyOp29
 70
     1
102
RTVSPropertyOp30
 70
     1
102
RTVSPropertyOp31
 70
     1
102
RTVSPropertyOp32
 70
     1
  0
XRECORD
  5
854
102
{ACAD_REACTORS
330
853
102
}
330
853
100
AcDbXrecord
280
     1
102
RTVSPropertyOp0
 70
     1
102
RTVSPropertyOp1
 70
     1
102
RTVSPropertyOp2
 70
     1
102
RTVSPropertyOp3
 70
     1
102
RTVSPropertyOp4
 70
     1
102
RTVSPropertyOp5
 70
     1
102
RTVSPropertyOp6
 70
     1
102
RTVSPropertyOp7
 70
     1
102
RTVSPropertyOp8
 70
     1
102
RTVSPropertyOp9
 70
     1
102
RTVSPropertyOp10
 70
     1
102
RTVSPropertyOp11
 70
     1
102
RTVSPropertyOp12
 70
     1
102
RTVSPropertyOp13
 70
     1
102
RTVSPropertyOp14
 70
     1
102
RTVSPropertyOp15
 70
     1
102
RTVSPropertyOp16
 70
     1
102
RTVSPropertyOp17
 70
     1
102
RTVSPropertyOp18
 70
     1
102
RTVSPropertyOp19
 70
     1
102
RTVSPropertyOp20
 70
     1
102
RTVSPropertyOp21
 70
     1
102
RTVSPropertyOp22
 70
     1
102
RTVSPropertyOp23
 70
     1
102
RTVSPropertyOp24
 70
     1
102
RTVSPropertyOp25
 70
     1
102
RTVSPropertyOp26
 70
     1
102
RTVSPropertyOp27
 70
     1
102
RTVSPropertyOp28
 70
     1
102
RTVSPropertyOp29
 70
     1
102
RTVSPropertyOp30
 70
     1
102
RTVSPropertyOp31
 70
     1
102
RTVSPropertyOp32
 70
     1
  0
XRECORD
  5
856
102
{ACAD_REACTORS
330
855
102
}
330
855
100
AcDbXrecord
280
     1
102
RTVSPropertyOp0
 70
     1
102
RTVSPropertyOp1
 70
     1
102
RTVSPropertyOp2
 70
     1
102
RTVSPropertyOp3
 70
     1
102
RTVSPropertyOp4
 70
     1
102
RTVSPropertyOp5
 70
     1
102
RTVSPropertyOp6
 70
     1
102
RTVSPropertyOp7
 70
     1
102
RTVSPropertyOp8
 70
     1
102
RTVSPropertyOp9
 70
     1
102
RTVSPropertyOp10
 70
     1
102
RTVSPropertyOp11
 70
     1
102
RTVSPropertyOp12
 70
     1
102
RTVSPropertyOp13
 70
     1
102
RTVSPropertyOp14
 70
     1
102
RTVSPropertyOp15
 70
     1
102
RTVSPropertyOp16
 70
     1
102
RTVSPropertyOp17
 70
     1
102
RTVSPropertyOp18
 70
     1
102
RTVSPropertyOp19
 70
     1
102
RTVSPropertyOp20
 70
     1
102
RTVSPropertyOp21
 70
     1
102
RTVSPropertyOp22
 70
     1
102
RTVSPropertyOp23
 70
     1
102
RTVSPropertyOp24
 70
     1
102
RTVSPropertyOp25
 70
     1
102
RTVSPropertyOp26
 70
     1
102
RTVSPropertyOp27
 70
     1
102
RTVSPropertyOp28
 70
     1
102
RTVSPropertyOp29
 70
     1
102
RTVSPropertyOp30
 70
     1
102
RTVSPropertyOp31
 70
     1
102
RTVSPropertyOp32
 70
     1
  0
XRECORD
  5
85E
102
{ACAD_REACTORS
330
85D
102
}
330
85D
100
AcDbXrecord
280
     1
102
RTVSPropertyOp0
 70
     1
102
RTVSPropertyOp1
 70
     1
102
RTVSPropertyOp2
 70
     1
102
RTVSPropertyOp3
 70
     1
102
RTVSPropertyOp4
 70
     1
102
RTVSPropertyOp5
 70
     1
102
RTVSPropertyOp6
 70
     1
102
RTVSPropertyOp7
 70
     1
102
RTVSPropertyOp8
 70
     1
102
RTVSPropertyOp9
 70
     1
102
RTVSPropertyOp10
 70
     1
102
RTVSPropertyOp11
 70
     1
102
RTVSPropertyOp12
 70
     1
102
RTVSPropertyOp13
 70
     1
102
RTVSPropertyOp14
 70
     1
102
RTVSPropertyOp15
 70
     1
102
RTVSPropertyOp16
 70
     1
102
RTVSPropertyOp17
 70
     1
102
RTVSPropertyOp18
 70
     1
102
RTVSPropertyOp19
 70
     1
102
RTVSPropertyOp20
 70
     1
102
RTVSPropertyOp21
 70
     1
102
RTVSPropertyOp22
 70
     1
102
RTVSPropertyOp23
 70
     1
102
RTVSPropertyOp24
 70
     1
102
RTVSPropertyOp25
 70
     1
102
RTVSPropertyOp26
 70
     1
102
RTVSPropertyOp27
 70
     1
102
RTVSPropertyOp28
 70
     1
102
RTVSPropertyOp29
 70
     1
102
RTVSPropertyOp30
 70
     1
102
RTVSPropertyOp31
 70
     1
102
RTVSPropertyOp32
 70
     1
  0
XRECORD
  5
87A
102
{ACAD_REACTORS
330
879
102
}
330
879
100
AcDbXrecord
280
     1
102
RTVSPropertyOp0
 70
     0
102
RTVSPropertyOp1
 70
     0
102
RTVSPropertyOp2
 70
     0
102
RTVSPropertyOp3
 70
     0
102
RTVSPropertyOp4
 70
     0
102
RTVSPropertyOp5
 70
     0
102
RTVSPropertyOp6
 70
     0
102
RTVSPropertyOp7
 70
     0
102
RTVSPropertyOp8
 70
     0
102
RTVSPropertyOp9
 70
     0
102
RTVSPropertyOp10
 70
     0
102
RTVSPropertyOp11
 70
     0
102
RTVSPropertyOp12
 70
     0
102
RTVSPropertyOp13
 70
     0
102
RTVSPropertyOp14
 70
     2
102
RTVSPropertyOp15
 70
     0
102
RTVSPropertyOp16
 70
     0
102
RTVSPropertyOp17
 70
     0
102
RTVSPropertyOp18
 70
     0
102
RTVSPropertyOp19
 70
     0
102
RTVSPropertyOp20
 70
     0
102
RTVSPropertyOp21
 70
     0
102
RTVSPropertyOp22
 70
     0
102
RTVSPropertyOp23
 70
     0
102
RTVSPropertyOp24
 70
     0
102
RTVSPropertyOp25
 70
     0
102
RTVSPropertyOp26
 70
     0
102
RTVSPropertyOp27
 70
     0
102
RTVSPropertyOp28
 70
     0
102
RTVSPropertyOp29
 70
     0
102
RTVSPropertyOp30
 70
     0
102
RTVSPropertyOp31
 70
     0
102
RTVSPropertyOp32
 70
     0
  0
XRECORD
  5
86A
102
{ACAD_REACTORS
330
869
102
}
330
869
100
AcDbXrecord
280
     1
102
RTVSPropertyOp0
 70
     1
102
RTVSPropertyOp1
 70
     1
102
RTVSPropertyOp2
 70
     1
102
RTVSPropertyOp3
 70
     1
102
RTVSPropertyOp4
 70
     1
102
RTVSPropertyOp5
 70
     1
102
RTVSPropertyOp6
 70
     1
102
RTVSPropertyOp7
 70
     1
102
RTVSPropertyOp8
 70
     1
102
RTVSPropertyOp9
 70
     1
102
RTVSPropertyOp10
 70
     1
102
RTVSPropertyOp11
 70
     1
102
RTVSPropertyOp12
 70
     1
102
RTVSPropertyOp13
 70
     1
102
RTVSPropertyOp14
 70
     1
102
RTVSPropertyOp15
 70
     1
102
RTVSPropertyOp16
 70
     1
102
RTVSPropertyOp17
 70
     1
102
RTVSPropertyOp18
 70
     1
102
RTVSPropertyOp19
 70
     1
102
RTVSPropertyOp20
 70
     1
102
RTVSPropertyOp21
 70
     1
102
RTVSPropertyOp22
 70
     1
102
RTVSPropertyOp23
 70
     1
102
RTVSPropertyOp24
 70
     1
102
RTVSPropertyOp25
 70
     1
102
RTVSPropertyOp26
 70
     1
102
RTVSPropertyOp27
 70
     1
102
RTVSPropertyOp28
 70
     1
102
RTVSPropertyOp29
 70
     1
102
RTVSPropertyOp30
 70
     1
102
RTVSPropertyOp31
 70
     1
102
RTVSPropertyOp32
 70
     1
  0
XRECORD
  5
87C
102
{ACAD_REACTORS
330
87B
102
}
330
87B
100
AcDbXrecord
280
     1
102
RTVSPropertyOp0
 70
     0
102
RTVSPropertyOp1
 70
     0
102
RTVSPropertyOp2
 70
     0
102
RTVSPropertyOp3
 70
     0
102
RTVSPropertyOp4
 70
     0
102
RTVSPropertyOp5
 70
     0
102
RTVSPropertyOp6
 70
     0
102
RTVSPropertyOp7
 70
     0
102
RTVSPropertyOp8
 70
     0
102
RTVSPropertyOp9
 70
     0
102
RTVSPropertyOp10
 70
     0
102
RTVSPropertyOp11
 70
     0
102
RTVSPropertyOp12
 70
     0
102
RTVSPropertyOp13
 70
     0
102
RTVSPropertyOp14
 70
     2
102
RTVSPropertyOp15
 70
     0
102
RTVSPropertyOp16
 70
     0
102
RTVSPropertyOp17
 70
     0
102
RTVSPropertyOp18
 70
     0
102
RTVSPropertyOp19
 70
     0
102
RTVSPropertyOp20
 70
     0
102
RTVSPropertyOp21
 70
     0
102
RTVSPropertyOp22
 70
     0
102
RTVSPropertyOp23
 70
     0
102
RTVSPropertyOp24
 70
     0
102
RTVSPropertyOp25
 70
     0
102
RTVSPropertyOp26
 70
     0
102
RTVSPropertyOp27
 70
     0
102
RTVSPropertyOp28
 70
     0
102
RTVSPropertyOp29
 70
     0
102
RTVSPropertyOp30
 70
     0
102
RTVSPropertyOp31
 70
     0
102
RTVSPropertyOp32
 70
     0
  0
XRECORD
  5
862
102
{ACAD_REACTORS
330
861
102
}
330
861
100
AcDbXrecord
280
     1
102
RTVSPropertyOp0
 70
     1
102
RTVSPropertyOp1
 70
     1
102
RTVSPropertyOp2
 70
     1
102
RTVSPropertyOp3
 70
     1
102
RTVSPropertyOp4
 70
     1
102
RTVSPropertyOp5
 70
     1
102
RTVSPropertyOp6
 70
     1
102
RTVSPropertyOp7
 70
     1
102
RTVSPropertyOp8
 70
     1
102
RTVSPropertyOp9
 70
     1
102
RTVSPropertyOp10
 70
     1
102
RTVSPropertyOp11
 70
     1
102
RTVSPropertyOp12
 70
     1
102
RTVSPropertyOp13
 70
     1
102
RTVSPropertyOp14
 70
     1
102
RTVSPropertyOp15
 70
     1
102
RTVSPropertyOp16
 70
     1
102
RTVSPropertyOp17
 70
     1
102
RTVSPropertyOp18
 70
     1
102
RTVSPropertyOp19
 70
     1
102
RTVSPropertyOp20
 70
     1
102
RTVSPropertyOp21
 70
     1
102
RTVSPropertyOp22
 70
     1
102
RTVSPropertyOp23
 70
     1
102
RTVSPropertyOp24
 70
     1
102
RTVSPropertyOp25
 70
     1
102
RTVSPropertyOp26
 70
     1
102
RTVSPropertyOp27
 70
     1
102
RTVSPropertyOp28
 70
     1
102
RTVSPropertyOp29
 70
     1
102
RTVSPropertyOp30
 70
     1
102
RTVSPropertyOp31
 70
     1
102
RTVSPropertyOp32
 70
     1
  0
XRECORD
  5
878
102
{ACAD_REACTORS
330
877
102
}
330
877
100
AcDbXrecord
280
     1
102
RTVSPropertyOp0
 70
     1
102
RTVSPropertyOp1
 70
     1
102
RTVSPropertyOp2
 70
     1
102
RTVSPropertyOp3
 70
     1
102
RTVSPropertyOp4
 70
     1
102
RTVSPropertyOp5
 70
     1
102
RTVSPropertyOp6
 70
     1
102
RTVSPropertyOp7
 70
     1
102
RTVSPropertyOp8
 70
     1
102
RTVSPropertyOp9
 70
     1
102
RTVSPropertyOp10
 70
     1
102
RTVSPropertyOp11
 70
     1
102
RTVSPropertyOp12
 70
     1
102
RTVSPropertyOp13
 70
     1
102
RTVSPropertyOp14
 70
     1
102
RTVSPropertyOp15
 70
     1
102
RTVSPropertyOp16
 70
     1
102
RTVSPropertyOp17
 70
     1
102
RTVSPropertyOp18
 70
     1
102
RTVSPropertyOp19
 70
     1
102
RTVSPropertyOp20
 70
     1
102
RTVSPropertyOp21
 70
     1
102
RTVSPropertyOp22
 70
     1
102
RTVSPropertyOp23
 70
     1
102
RTVSPropertyOp24
 70
     1
102
RTVSPropertyOp25
 70
     1
102
RTVSPropertyOp26
 70
     1
102
RTVSPropertyOp27
 70
     1
102
RTVSPropertyOp28
 70
     1
102
RTVSPropertyOp29
 70
     1
102
RTVSPropertyOp30
 70
     1
102
RTVSPropertyOp31
 70
     1
102
RTVSPropertyOp32
 70
     1
  0
XRECORD
  5
876
102
{ACAD_REACTORS
330
875
102
}
330
875
100
AcDbXrecord
280
     1
102
RTVSPropertyOp0
 70
     1
102
RTVSPropertyOp1
 70
     1
102
RTVSPropertyOp2
 70
     1
102
RTVSPropertyOp3
 70
     1
102
RTVSPropertyOp4
 70
     1
102
RTVSPropertyOp5
 70
     1
102
RTVSPropertyOp6
 70
     1
102
RTVSPropertyOp7
 70
     1
102
RTVSPropertyOp8
 70
     1
102
RTVSPropertyOp9
 70
     1
102
RTVSPropertyOp10
 70
     1
102
RTVSPropertyOp11
 70
     1
102
RTVSPropertyOp12
 70
     1
102
RTVSPropertyOp13
 70
     1
102
RTVSPropertyOp14
 70
     1
102
RTVSPropertyOp15
 70
     1
102
RTVSPropertyOp16
 70
     1
102
RTVSPropertyOp17
 70
     1
102
RTVSPropertyOp18
 70
     1
102
RTVSPropertyOp19
 70
     1
102
RTVSPropertyOp20
 70
     1
102
RTVSPropertyOp21
 70
     1
102
RTVSPropertyOp22
 70
     1
102
RTVSPropertyOp23
 70
     1
102
RTVSPropertyOp24
 70
     1
102
RTVSPropertyOp25
 70
     1
102
RTVSPropertyOp26
 70
     1
102
RTVSPropertyOp27
 70
     1
102
RTVSPropertyOp28
 70
     1
102
RTVSPropertyOp29
 70
     1
102
RTVSPropertyOp30
 70
     1
102
RTVSPropertyOp31
 70
     1
102
RTVSPropertyOp32
 70
     1
  0
XRECORD
  5
870
102
{ACAD_REACTORS
330
86F
102
}
330
86F
100
AcDbXrecord
280
     1
102
RTVSPropertyOp0
 70
     1
102
RTVSPropertyOp1
 70
     1
102
RTVSPropertyOp2
 70
     1
102
RTVSPropertyOp3
 70
     1
102
RTVSPropertyOp4
 70
     1
102
RTVSPropertyOp5
 70
     1
102
RTVSPropertyOp6
 70
     1
102
RTVSPropertyOp7
 70
     1
102
RTVSPropertyOp8
 70
     1
102
RTVSPropertyOp9
 70
     1
102
RTVSPropertyOp10
 70
     1
102
RTVSPropertyOp11
 70
     1
102
RTVSPropertyOp12
 70
     1
102
RTVSPropertyOp13
 70
     1
102
RTVSPropertyOp14
 70
     1
102
RTVSPropertyOp15
 70
     1
102
RTVSPropertyOp16
 70
     1
102
RTVSPropertyOp17
 70
     1
102
RTVSPropertyOp18
 70
     1
102
RTVSPropertyOp19
 70
     1
102
RTVSPropertyOp20
 70
     1
102
RTVSPropertyOp21
 70
     1
102
RTVSPropertyOp22
 70
     1
102
RTVSPropertyOp23
 70
     1
102
RTVSPropertyOp24
 70
     1
102
RTVSPropertyOp25
 70
     1
102
RTVSPropertyOp26
 70
     1
102
RTVSPropertyOp27
 70
     1
102
RTVSPropertyOp28
 70
     1
102
RTVSPropertyOp29
 70
     1
102
RTVSPropertyOp30
 70
     1
102
RTVSPropertyOp31
 70
     1
102
RTVSPropertyOp32
 70
     1
  0
XRECORD
  5
872
102
{ACAD_REACTORS
330
871
102
}
330
871
100
AcDbXrecord
280
     1
102
RTVSPropertyOp0
 70
     1
102
RTVSPropertyOp1
 70
     1
102
RTVSPropertyOp2
 70
     1
102
RTVSPropertyOp3
 70
     1
102
RTVSPropertyOp4
 70
     1
102
RTVSPropertyOp5
 70
     1
102
RTVSPropertyOp6
 70
     1
102
RTVSPropertyOp7
 70
     1
102
RTVSPropertyOp8
 70
     1
102
RTVSPropertyOp9
 70
     1
102
RTVSPropertyOp10
 70
     1
102
RTVSPropertyOp11
 70
     1
102
RTVSPropertyOp12
 70
     1
102
RTVSPropertyOp13
 70
     1
102
RTVSPropertyOp14
 70
     1
102
RTVSPropertyOp15
 70
     1
102
RTVSPropertyOp16
 70
     1
102
RTVSPropertyOp17
 70
     1
102
RTVSPropertyOp18
 70
     1
102
RTVSPropertyOp19
 70
     1
102
RTVSPropertyOp20
 70
     1
102
RTVSPropertyOp21
 70
     1
102
RTVSPropertyOp22
 70
     1
102
RTVSPropertyOp23
 70
     1
102
RTVSPropertyOp24
 70
     1
102
RTVSPropertyOp25
 70
     1
102
RTVSPropertyOp26
 70
     1
102
RTVSPropertyOp27
 70
     1
102
RTVSPropertyOp28
 70
     1
102
RTVSPropertyOp29
 70
     1
102
RTVSPropertyOp30
 70
     1
102
RTVSPropertyOp31
 70
     1
102
RTVSPropertyOp32
 70
     1
  0
XRECORD
  5
868
102
{ACAD_REACTORS
330
867
102
}
330
867
100
AcDbXrecord
280
     1
102
RTVSPropertyOp0
 70
     1
102
RTVSPropertyOp1
 70
     1
102
RTVSPropertyOp2
 70
     1
102
RTVSPropertyOp3
 70
     1
102
RTVSPropertyOp4
 70
     1
102
RTVSPropertyOp5
 70
     1
102
RTVSPropertyOp6
 70
     1
102
RTVSPropertyOp7
 70
     1
102
RTVSPropertyOp8
 70
     1
102
RTVSPropertyOp9
 70
     1
102
RTVSPropertyOp10
 70
     1
102
RTVSPropertyOp11
 70
     1
102
RTVSPropertyOp12
 70
     1
102
RTVSPropertyOp13
 70
     1
102
RTVSPropertyOp14
 70
     1
102
RTVSPropertyOp15
 70
     1
102
RTVSPropertyOp16
 70
     1
102
RTVSPropertyOp17
 70
     1
102
RTVSPropertyOp18
 70
     1
102
RTVSPropertyOp19
 70
     1
102
RTVSPropertyOp20
 70
     1
102
RTVSPropertyOp21
 70
     1
102
RTVSPropertyOp22
 70
     1
102
RTVSPropertyOp23
 70
     1
102
RTVSPropertyOp24
 70
     1
102
RTVSPropertyOp25
 70
     1
102
RTVSPropertyOp26
 70
     1
102
RTVSPropertyOp27
 70
     1
102
RTVSPropertyOp28
 70
     1
102
RTVSPropertyOp29
 70
     1
102
RTVSPropertyOp30
 70
     1
102
RTVSPropertyOp31
 70
     1
102
RTVSPropertyOp32
 70
     1
  0
XRECORD
  5
85C
102
{ACAD_REACTORS
330
85B
102
}
330
85B
100
AcDbXrecord
280
     1
102
RTVSPropertyOp0
 70
     1
102
RTVSPropertyOp1
 70
     1
102
RTVSPropertyOp2
 70
     1
102
RTVSPropertyOp3
 70
     1
102
RTVSPropertyOp4
 70
     1
102
RTVSPropertyOp5
 70
     1
102
RTVSPropertyOp6
 70
     1
102
RTVSPropertyOp7
 70
     1
102
RTVSPropertyOp8
 70
     1
102
RTVSPropertyOp9
 70
     1
102
RTVSPropertyOp10
 70
     1
102
RTVSPropertyOp11
 70
     1
102
RTVSPropertyOp12
 70
     1
102
RTVSPropertyOp13
 70
     1
102
RTVSPropertyOp14
 70
     1
102
RTVSPropertyOp15
 70
     1
102
RTVSPropertyOp16
 70
     1
102
RTVSPropertyOp17
 70
     1
102
RTVSPropertyOp18
 70
     1
102
RTVSPropertyOp19
 70
     1
102
RTVSPropertyOp20
 70
     1
102
RTVSPropertyOp21
 70
     1
102
RTVSPropertyOp22
 70
     1
102
RTVSPropertyOp23
 70
     1
102
RTVSPropertyOp24
 70
     1
102
RTVSPropertyOp25
 70
     1
102
RTVSPropertyOp26
 70
     1
102
RTVSPropertyOp27
 70
     1
102
RTVSPropertyOp28
 70
     1
102
RTVSPropertyOp29
 70
     1
102
RTVSPropertyOp30
 70
     1
102
RTVSPropertyOp31
 70
     1
102
RTVSPropertyOp32
 70
     1
  0
XRECORD
  5
874
102
{ACAD_REACTORS
330
873
102
}
330
873
100
AcDbXrecord
280
     1
102
RTVSPropertyOp0
 70
     1
102
RTVSPropertyOp1
 70
     1
102
RTVSPropertyOp2
 70
     1
102
RTVSPropertyOp3
 70
     1
102
RTVSPropertyOp4
 70
     1
102
RTVSPropertyOp5
 70
     1
102
RTVSPropertyOp6
 70
     1
102
RTVSPropertyOp7
 70
     1
102
RTVSPropertyOp8
 70
     1
102
RTVSPropertyOp9
 70
     1
102
RTVSPropertyOp10
 70
     1
102
RTVSPropertyOp11
 70
     1
102
RTVSPropertyOp12
 70
     1
102
RTVSPropertyOp13
 70
     1
102
RTVSPropertyOp14
 70
     1
102
RTVSPropertyOp15
 70
     1
102
RTVSPropertyOp16
 70
     1
102
RTVSPropertyOp17
 70
     1
102
RTVSPropertyOp18
 70
     1
102
RTVSPropertyOp19
 70
     1
102
RTVSPropertyOp20
 70
     1
102
RTVSPropertyOp21
 70
     1
102
RTVSPropertyOp22
 70
     1
102
RTVSPropertyOp23
 70
     1
102
RTVSPropertyOp24
 70
     1
102
RTVSPropertyOp25
 70
     1
102
RTVSPropertyOp26
 70
     1
102
RTVSPropertyOp27
 70
     1
102
RTVSPropertyOp28
 70
     1
102
RTVSPropertyOp29
 70
     1
102
RTVSPropertyOp30
 70
     1
102
RTVSPropertyOp31
 70
     1
102
RTVSPropertyOp32
 70
     1
  0
ENDSEC
  0
EOF
